  0
SECTION
  2
HEADER
  9
$EXTMIN
 10
5.273000
 20
14.611000
  9
$EXTMAX
 10
9.355000
 20
18.265000
  9
$LIMMIN
 10
5.273000
 20
14.611000
  9
$LIMMAX
 10
9.355000
 20
18.265000
  9
$FILLMODE
 70
  1
  0
ENDSEC
  0
SECTION
  2
TABLES
  0
TABLE
  2
LTYPE
 70
  1
  0
LTYPE
  2
CONTINUOUS
 70
 64
  3
Solid line
 72
 65
 73
  0
 40
0.0
  0
ENDTAB
  0
TABLE
  2
LAYER
 70
 1
  0
LAYER
  2
0
 70
  0
 62
7
  6
CONTINUOUS
  0
LAYER
  2
gg1
 70
  0
 62
1
  6
CONTINUOUS
  0
ENDTAB
  0
TABLE
  2
STYLE
 70
  1
  0
STYLE
  2
STANDARD
 70
  0
 40
0.0
 41
1.0
 50
0.0
 71
  0
 42
0.2
  3
txt
  4

  0
ENDTAB
  0
ENDSEC
  0
SECTION
  2
BLOCKS
  0
BLOCK
  8
0
  2
D10
 70
64
 10
0.0
 20
0.0
  3
D10
  0
CIRCLE
  8
0
 10
0.000000
 20
0.000000
 40
0.002500
 0
ENDBLK
  8
0
  0
BLOCK
  8
0
  2
D11
 70
64
 10
0.0
 20
0.0
  3
D11
  0
CIRCLE
  8
0
 10
0.000000
 20
0.000000
 40
0.005000
 0
ENDBLK
  8
0
  0
BLOCK
  8
0
  2
D12
 70
64
 10
0.0
 20
0.0
  3
D12
  0
CIRCLE
  8
0
 10
0.000000
 20
0.000000
 40
0.003000
 0
ENDBLK
  8
0
  0
BLOCK
  8
0
  2
D13
 70
64
 10
0.0
 20
0.0
  3
D13
  0
CIRCLE
  8
0
 10
0.000000
 20
0.000000
 40
0.001000
 0
ENDBLK
  8
0
  0
ENDSEC
  0
SECTION
  2
ENTITIES
  0
POLYLINE
  8
gg1
 62
1
 40
0.000000
 41
0.000000
 66
  1
  0
VERTEX
  8
gg1
 10
8.832000
 20
17.365000
  0
VERTEX
  8
gg1
 10
8.832000
 20
17.365000
  0
VERTEX
  8
gg1
 10
8.832000
 20
17.365000
 42
0.414214
  0
VERTEX
  8
gg1
 10
8.800000
 20
17.333000
  0
VERTEX
  8
gg1
 10
8.800000
 20
17.333000
  0
SEQEND
  8
gg1
  0
POLYLINE
  8
gg1
 62
1
 40
0.000000
 41
0.000000
 66
  1
  0
VERTEX
  8
gg1
 10
8.800000
 20
17.982000
  0
VERTEX
  8
gg1
 10
8.800000
 20
17.982000
  0
VERTEX
  8
gg1
 10
8.800000
 20
17.982000
 42
0.414214
  0
VERTEX
  8
gg1
 10
8.832000
 20
17.950000
  0
VERTEX
  8
gg1
 10
8.832000
 20
17.950000
  0
SEQEND
  8
gg1
  0
POLYLINE
  8
gg1
 62
1
 40
0.000000
 41
0.000000
 66
  1
  0
VERTEX
  8
gg1
 10
6.168000
 20
17.950000
  0
VERTEX
  8
gg1
 10
6.168000
 20
17.950000
  0
VERTEX
  8
gg1
 10
6.168000
 20
17.950000
 42
0.414214
  0
VERTEX
  8
gg1
 10
6.200000
 20
17.982000
  0
VERTEX
  8
gg1
 10
6.200000
 20
17.982000
  0
SEQEND
  8
gg1
  0
POLYLINE
  8
gg1
 62
1
 40
0.000000
 41
0.000000
 66
  1
  0
VERTEX
  8
gg1
 10
6.200000
 20
17.333000
  0
VERTEX
  8
gg1
 10
6.200000
 20
17.333000
  0
VERTEX
  8
gg1
 10
6.200000
 20
17.333000
 42
0.414214
  0
VERTEX
  8
gg1
 10
6.168000
 20
17.365000
  0
VERTEX
  8
gg1
 10
6.168000
 20
17.365000
  0
SEQEND
  8
gg1
  0
POLYLINE
  8
gg1
 62
1
 40
0.000000
 41
0.000000
 66
  1
  0
VERTEX
  8
gg1
 10
8.800000
 20
17.190000
  0
VERTEX
  8
gg1
 10
8.800000
 20
17.190000
  0
VERTEX
  8
gg1
 10
8.800000
 20
17.190000
 42
0.414214
  0
VERTEX
  8
gg1
 10
9.050000
 20
16.940000
  0
VERTEX
  8
gg1
 10
9.050000
 20
16.940000
  0
SEQEND
  8
gg1
  0
POLYLINE
  8
gg1
 62
1
 40
0.000000
 41
0.000000
 66
  1
  0
VERTEX
  8
gg1
 10
9.050000
 20
16.490000
  0
VERTEX
  8
gg1
 10
9.050000
 20
16.490000
  0
VERTEX
  8
gg1
 10
9.050000
 20
16.490000
 42
0.414214
  0
VERTEX
  8
gg1
 10
8.800000
 20
16.240000
  0
VERTEX
  8
gg1
 10
8.800000
 20
16.240000
  0
SEQEND
  8
gg1
  0
POLYLINE
  8
gg1
 62
1
 40
0.000000
 41
0.000000
 66
  1
  0
VERTEX
  8
gg1
 10
5.950000
 20
16.940000
  0
VERTEX
  8
gg1
 10
5.950000
 20
16.940000
  0
VERTEX
  8
gg1
 10
5.950000
 20
16.940000
 42
0.414214
  0
VERTEX
  8
gg1
 10
6.200000
 20
17.190000
  0
VERTEX
  8
gg1
 10
6.200000
 20
17.190000
  0
SEQEND
  8
gg1
  0
POLYLINE
  8
gg1
 62
1
 40
0.000000
 41
0.000000
 66
  1
  0
VERTEX
  8
gg1
 10
6.200000
 20
16.240000
  0
VERTEX
  8
gg1
 10
6.200000
 20
16.240000
  0
VERTEX
  8
gg1
 10
6.200000
 20
16.240000
 42
0.414214
  0
VERTEX
  8
gg1
 10
5.950000
 20
16.490000
  0
VERTEX
  8
gg1
 10
5.950000
 20
16.490000
  0
SEQEND
  8
gg1
  0
POLYLINE
  8
gg1
 62
1
 40
0.000000
 41
0.000000
 66
  1
  0
VERTEX
  8
gg1
 10
8.768000
 20
15.000000
  0
VERTEX
  8
gg1
 10
8.768000
 20
15.000000
  0
VERTEX
  8
gg1
 10
8.768000
 20
15.000000
 42
0.414214
  0
VERTEX
  8
gg1
 10
8.800000
 20
15.032000
  0
VERTEX
  8
gg1
 10
8.800000
 20
15.032000
  0
SEQEND
  8
gg1
  0
POLYLINE
  8
gg1
 62
1
 40
0.000000
 41
0.000000
 66
  1
  0
VERTEX
  8
gg1
 10
6.200000
 20
15.032000
  0
VERTEX
  8
gg1
 10
6.200000
 20
15.032000
  0
VERTEX
  8
gg1
 10
6.200000
 20
15.032000
 42
0.414214
  0
VERTEX
  8
gg1
 10
6.232000
 20
15.000000
  0
VERTEX
  8
gg1
 10
6.232000
 20
15.000000
  0
SEQEND
  8
gg1
  0
POLYLINE
  8
gg1
 62
1
 40
0.000000
 41
0.000000
 66
  1
  0
VERTEX
  8
gg1
 10
6.233000
 20
15.630000
  0
VERTEX
  8
gg1
 10
6.233000
 20
15.630000
  0
VERTEX
  8
gg1
 10
6.233000
 20
15.630000
 42
0.414214
  0
VERTEX
  8
gg1
 10
6.265000
 20
15.662000
  0
VERTEX
  8
gg1
 10
6.265000
 20
15.662000
  0
SEQEND
  8
gg1
  0
POLYLINE
  8
gg1
 62
1
 40
0.000000
 41
0.000000
 66
  1
  0
VERTEX
  8
gg1
 10
6.265000
 20
15.873000
  0
VERTEX
  8
gg1
 10
6.265000
 20
15.873000
  0
VERTEX
  8
gg1
 10
6.265000
 20
15.873000
 42
0.414214
  0
VERTEX
  8
gg1
 10
6.233000
 20
15.905000
  0
VERTEX
  8
gg1
 10
6.233000
 20
15.905000
  0
SEQEND
  8
gg1
  0
POLYLINE
  8
gg1
 62
1
 40
0.000000
 41
0.000000
 66
  1
  0
VERTEX
  8
gg1
 10
5.650000
 20
16.522000
  0
VERTEX
  8
gg1
 10
5.650000
 20
16.522000
  0
VERTEX
  8
gg1
 10
5.650000
 20
16.522000
 42
0.414214
  0
VERTEX
  8
gg1
 10
5.682000
 20
16.490000
  0
VERTEX
  8
gg1
 10
5.682000
 20
16.490000
  0
SEQEND
  8
gg1
  0
POLYLINE
  8
gg1
 62
1
 40
0.000000
 41
0.000000
 66
  1
  0
VERTEX
  8
gg1
 10
5.682000
 20
16.940000
  0
VERTEX
  8
gg1
 10
5.682000
 20
16.940000
  0
VERTEX
  8
gg1
 10
5.682000
 20
16.940000
 42
0.414214
  0
VERTEX
  8
gg1
 10
5.650000
 20
16.908000
  0
VERTEX
  8
gg1
 10
5.650000
 20
16.908000
  0
SEQEND
  8
gg1
  0
POLYLINE
  8
gg1
 62
1
 40
0.000000
 41
0.000000
 66
  1
  0
VERTEX
  8
gg1
 10
6.232000
 20
18.260000
  0
VERTEX
  8
gg1
 10
6.232000
 20
18.260000
  0
VERTEX
  8
gg1
 10
6.232000
 20
18.260000
 42
0.414214
  0
VERTEX
  8
gg1
 10
6.200000
 20
18.228000
  0
VERTEX
  8
gg1
 10
6.200000
 20
18.228000
  0
SEQEND
  8
gg1
  0
POLYLINE
  8
gg1
 62
1
 40
0.000000
 41
0.000000
 66
  1
  0
VERTEX
  8
gg1
 10
8.735000
 20
15.662000
  0
VERTEX
  8
gg1
 10
8.735000
 20
15.662000
  0
VERTEX
  8
gg1
 10
8.735000
 20
15.662000
 42
0.414214
  0
VERTEX
  8
gg1
 10
8.767000
 20
15.630000
  0
VERTEX
  8
gg1
 10
8.767000
 20
15.630000
  0
SEQEND
  8
gg1
  0
POLYLINE
  8
gg1
 62
1
 40
0.000000
 41
0.000000
 66
  1
  0
VERTEX
  8
gg1
 10
8.767000
 20
15.905000
  0
VERTEX
  8
gg1
 10
8.767000
 20
15.905000
  0
VERTEX
  8
gg1
 10
8.767000
 20
15.905000
 42
0.414214
  0
VERTEX
  8
gg1
 10
8.735000
 20
15.873000
  0
VERTEX
  8
gg1
 10
8.735000
 20
15.873000
  0
SEQEND
  8
gg1
  0
POLYLINE
  8
gg1
 62
1
 40
0.000000
 41
0.000000
 66
  1
  0
VERTEX
  8
gg1
 10
8.800000
 20
18.228000
  0
VERTEX
  8
gg1
 10
8.800000
 20
18.228000
  0
VERTEX
  8
gg1
 10
8.800000
 20
18.228000
 42
0.414214
  0
VERTEX
  8
gg1
 10
8.768000
 20
18.260000
  0
VERTEX
  8
gg1
 10
8.768000
 20
18.260000
  0
SEQEND
  8
gg1
  0
POLYLINE
  8
gg1
 62
1
 40
0.000000
 41
0.000000
 66
  1
  0
VERTEX
  8
gg1
 10
9.318000
 20
16.490000
  0
VERTEX
  8
gg1
 10
9.318000
 20
16.490000
  0
VERTEX
  8
gg1
 10
9.318000
 20
16.490000
 42
0.414214
  0
VERTEX
  8
gg1
 10
9.350000
 20
16.522000
  0
VERTEX
  8
gg1
 10
9.350000
 20
16.522000
  0
SEQEND
  8
gg1
  0
POLYLINE
  8
gg1
 62
1
 40
0.000000
 41
0.000000
 66
  1
  0
VERTEX
  8
gg1
 10
9.350000
 20
16.908000
  0
VERTEX
  8
gg1
 10
9.350000
 20
16.908000
  0
VERTEX
  8
gg1
 10
9.350000
 20
16.908000
 42
0.414214
  0
VERTEX
  8
gg1
 10
9.318000
 20
16.940000
  0
VERTEX
  8
gg1
 10
9.318000
 20
16.940000
  0
SEQEND
  8
gg1
  0
POLYLINE
  8
gg1
 62
1
 40
0.000000
 41
0.000000
 66
  1
  0
VERTEX
  8
gg1
 10
9.020000
 20
17.365000
  0
VERTEX
  8
gg1
 10
9.020000
 20
17.950000
  0
SEQEND
  8
gg1
  0
POLYLINE
  8
gg1
 62
1
 40
0.000000
 41
0.000000
 66
  1
  0
VERTEX
  8
gg1
 10
8.832000
 20
17.365000
  0
VERTEX
  8
gg1
 10
9.020000
 20
17.365000
  0
SEQEND
  8
gg1
  0
POLYLINE
  8
gg1
 62
1
 40
0.000000
 41
0.000000
 66
  1
  0
VERTEX
  8
gg1
 10
8.832000
 20
17.950000
  0
VERTEX
  8
gg1
 10
9.020000
 20
17.950000
  0
SEQEND
  8
gg1
  0
POLYLINE
  8
gg1
 62
1
 40
0.000000
 41
0.000000
 66
  1
  0
VERTEX
  8
gg1
 10
5.980000
 20
17.950000
  0
VERTEX
  8
gg1
 10
6.168000
 20
17.950000
  0
SEQEND
  8
gg1
  0
POLYLINE
  8
gg1
 62
1
 40
0.000000
 41
0.000000
 66
  1
  0
VERTEX
  8
gg1
 10
5.980000
 20
17.365000
  0
VERTEX
  8
gg1
 10
5.980000
 20
17.950000
  0
SEQEND
  8
gg1
  0
POLYLINE
  8
gg1
 62
1
 40
0.000000
 41
0.000000
 66
  1
  0
VERTEX
  8
gg1
 10
5.980000
 20
17.365000
  0
VERTEX
  8
gg1
 10
6.168000
 20
17.365000
  0
SEQEND
  8
gg1
  0
POLYLINE
  8
gg1
 62
1
 40
0.000000
 41
0.000000
 66
  1
  0
VERTEX
  8
gg1
 10
8.800000
 20
15.905000
  0
VERTEX
  8
gg1
 10
8.800000
 20
16.240000
  0
SEQEND
  8
gg1
  0
POLYLINE
  8
gg1
 62
1
 40
0.000000
 41
0.000000
 66
  1
  0
VERTEX
  8
gg1
 10
8.800000
 20
17.190000
  0
VERTEX
  8
gg1
 10
8.800000
 20
17.333000
  0
SEQEND
  8
gg1
  0
POLYLINE
  8
gg1
 62
1
 40
0.000000
 41
0.000000
 66
  1
  0
VERTEX
  8
gg1
 10
8.800000
 20
17.982000
  0
VERTEX
  8
gg1
 10
8.800000
 20
18.228000
  0
SEQEND
  8
gg1
  0
POLYLINE
  8
gg1
 62
1
 40
0.000000
 41
0.000000
 66
  1
  0
VERTEX
  8
gg1
 10
8.800000
 20
15.032000
  0
VERTEX
  8
gg1
 10
8.800000
 20
15.630000
  0
SEQEND
  8
gg1
  0
POLYLINE
  8
gg1
 62
1
 40
0.000000
 41
0.000000
 66
  1
  0
VERTEX
  8
gg1
 10
6.200000
 20
17.982000
  0
VERTEX
  8
gg1
 10
6.200000
 20
18.228000
  0
SEQEND
  8
gg1
  0
POLYLINE
  8
gg1
 62
1
 40
0.000000
 41
0.000000
 66
  1
  0
VERTEX
  8
gg1
 10
6.200000
 20
17.190000
  0
VERTEX
  8
gg1
 10
6.200000
 20
17.333000
  0
SEQEND
  8
gg1
  0
POLYLINE
  8
gg1
 62
1
 40
0.000000
 41
0.000000
 66
  1
  0
VERTEX
  8
gg1
 10
6.200000
 20
15.905000
  0
VERTEX
  8
gg1
 10
6.200000
 20
16.240000
  0
SEQEND
  8
gg1
  0
POLYLINE
  8
gg1
 62
1
 40
0.000000
 41
0.000000
 66
  1
  0
VERTEX
  8
gg1
 10
6.900000
 20
15.000000
  0
VERTEX
  8
gg1
 10
6.950000
 20
15.050000
  0
VERTEX
  8
gg1
 10
7.300000
 20
15.050000
  0
VERTEX
  8
gg1
 10
7.350000
 20
15.000000
  0
SEQEND
  8
gg1
  0
POLYLINE
  8
gg1
 62
1
 40
0.000000
 41
0.000000
 66
  1
  0
VERTEX
  8
gg1
 10
6.200000
 20
15.905000
  0
VERTEX
  8
gg1
 10
6.233000
 20
15.905000
  0
SEQEND
  8
gg1
  0
POLYLINE
  8
gg1
 62
1
 40
0.000000
 41
0.000000
 66
  1
  0
VERTEX
  8
gg1
 10
6.200000
 20
15.630000
  0
VERTEX
  8
gg1
 10
6.233000
 20
15.630000
  0
SEQEND
  8
gg1
  0
POLYLINE
  8
gg1
 62
1
 40
0.000000
 41
0.000000
 66
  1
  0
VERTEX
  8
gg1
 10
6.265000
 20
15.662000
  0
VERTEX
  8
gg1
 10
6.265000
 20
15.873000
  0
SEQEND
  8
gg1
  0
POLYLINE
  8
gg1
 62
1
 40
0.000000
 41
0.000000
 66
  1
  0
VERTEX
  8
gg1
 10
7.350000
 20
15.000000
  0
VERTEX
  8
gg1
 10
8.768000
 20
15.000000
  0
SEQEND
  8
gg1
  0
POLYLINE
  8
gg1
 62
1
 40
0.000000
 41
0.000000
 66
  1
  0
VERTEX
  8
gg1
 10
6.200000
 20
15.032000
  0
VERTEX
  8
gg1
 10
6.200000
 20
15.630000
  0
SEQEND
  8
gg1
  0
POLYLINE
  8
gg1
 62
1
 40
0.000000
 41
0.000000
 66
  1
  0
VERTEX
  8
gg1
 10
5.682000
 20
16.490000
  0
VERTEX
  8
gg1
 10
5.950000
 20
16.490000
  0
SEQEND
  8
gg1
  0
POLYLINE
  8
gg1
 62
1
 40
0.000000
 41
0.000000
 66
  1
  0
VERTEX
  8
gg1
 10
5.650000
 20
16.522000
  0
VERTEX
  8
gg1
 10
5.650000
 20
16.908000
  0
SEQEND
  8
gg1
  0
POLYLINE
  8
gg1
 62
1
 40
0.000000
 41
0.000000
 66
  1
  0
VERTEX
  8
gg1
 10
5.682000
 20
16.940000
  0
VERTEX
  8
gg1
 10
5.950000
 20
16.940000
  0
SEQEND
  8
gg1
  0
POLYLINE
  8
gg1
 62
1
 40
0.000000
 41
0.000000
 66
  1
  0
VERTEX
  8
gg1
 10
6.232000
 20
15.000000
  0
VERTEX
  8
gg1
 10
6.900000
 20
15.000000
  0
SEQEND
  8
gg1
  0
POLYLINE
  8
gg1
 62
1
 40
0.000000
 41
0.000000
 66
  1
  0
VERTEX
  8
gg1
 10
6.232000
 20
18.260000
  0
VERTEX
  8
gg1
 10
8.768000
 20
18.260000
  0
SEQEND
  8
gg1
  0
POLYLINE
  8
gg1
 62
1
 40
0.000000
 41
0.000000
 66
  1
  0
VERTEX
  8
gg1
 10
8.735000
 20
15.662000
  0
VERTEX
  8
gg1
 10
8.735000
 20
15.873000
  0
SEQEND
  8
gg1
  0
POLYLINE
  8
gg1
 62
1
 40
0.000000
 41
0.000000
 66
  1
  0
VERTEX
  8
gg1
 10
8.767000
 20
15.630000
  0
VERTEX
  8
gg1
 10
8.800000
 20
15.630000
  0
SEQEND
  8
gg1
  0
POLYLINE
  8
gg1
 62
1
 40
0.000000
 41
0.000000
 66
  1
  0
VERTEX
  8
gg1
 10
8.767000
 20
15.905000
  0
VERTEX
  8
gg1
 10
8.800000
 20
15.905000
  0
SEQEND
  8
gg1
  0
POLYLINE
  8
gg1
 62
1
 40
0.000000
 41
0.000000
 66
  1
  0
VERTEX
  8
gg1
 10
9.050000
 20
16.490000
  0
VERTEX
  8
gg1
 10
9.318000
 20
16.490000
  0
SEQEND
  8
gg1
  0
POLYLINE
  8
gg1
 62
1
 40
0.000000
 41
0.000000
 66
  1
  0
VERTEX
  8
gg1
 10
9.050000
 20
16.940000
  0
VERTEX
  8
gg1
 10
9.318000
 20
16.940000
  0
SEQEND
  8
gg1
  0
POLYLINE
  8
gg1
 62
1
 40
0.000000
 41
0.000000
 66
  1
  0
VERTEX
  8
gg1
 10
9.350000
 20
16.522000
  0
VERTEX
  8
gg1
 10
9.350000
 20
16.908000
  0
SEQEND
  8
gg1
  0
POLYLINE
  8
gg1
 62
1
 40
0.000000
 41
0.000000
 66
  1
  0
VERTEX
  8
gg1
 10
5.280000
 20
15.060000
  0
VERTEX
  8
gg1
 10
5.300000
 20
15.000000
  0
VERTEX
  8
gg1
 10
5.320000
 20
15.060000
  0
SEQEND
  8
gg1
  0
POLYLINE
  8
gg1
 62
1
 40
0.000000
 41
0.000000
 66
  1
  0
VERTEX
  8
gg1
 10
5.300000
 20
18.260000
  0
VERTEX
  8
gg1
 10
5.320000
 20
18.200000
  0
SEQEND
  8
gg1
  0
POLYLINE
  8
gg1
 62
1
 40
0.000000
 41
0.000000
 66
  1
  0
VERTEX
  8
gg1
 10
5.280000
 20
18.200000
  0
VERTEX
  8
gg1
 10
5.300000
 20
18.260000
  0
SEQEND
  8
gg1
  0
POLYLINE
  8
gg1
 62
1
 40
0.000000
 41
0.000000
 66
  1
  0
VERTEX
  8
gg1
 10
5.300000
 20
15.000000
  0
VERTEX
  8
gg1
 10
5.300000
 20
16.413100
  0
SEQEND
  8
gg1
  0
POLYLINE
  8
gg1
 62
1
 40
0.000000
 41
0.000000
 66
  1
  0
VERTEX
  8
gg1
 10
5.300000
 20
16.814900
  0
VERTEX
  8
gg1
 10
5.300000
 20
18.260000
  0
SEQEND
  8
gg1
  0
POLYLINE
  8
gg1
 62
1
 40
0.000000
 41
0.000000
 66
  1
  0
VERTEX
  8
gg1
 10
5.290000
 20
15.000000
  0
VERTEX
  8
gg1
 10
6.199500
 20
15.000000
  0
SEQEND
  8
gg1
  0
POLYLINE
  8
gg1
 62
1
 40
0.000000
 41
0.000000
 66
  1
  0
VERTEX
  8
gg1
 10
5.290000
 20
18.260000
  0
VERTEX
  8
gg1
 10
6.199500
 20
18.260000
  0
SEQEND
  8
gg1
  0
POLYLINE
  8
gg1
 62
1
 40
0.000000
 41
0.000000
 66
  1
  0
VERTEX
  8
gg1
 10
5.650000
 20
14.650000
  0
VERTEX
  8
gg1
 10
5.710000
 20
14.670000
  0
SEQEND
  8
gg1
  0
POLYLINE
  8
gg1
 62
1
 40
0.000000
 41
0.000000
 66
  1
  0
VERTEX
  8
gg1
 10
5.650000
 20
14.650000
  0
VERTEX
  8
gg1
 10
5.710000
 20
14.630000
  0
SEQEND
  8
gg1
  0
POLYLINE
  8
gg1
 62
1
 40
0.000000
 41
0.000000
 66
  1
  0
VERTEX
  8
gg1
 10
9.290000
 20
14.630000
  0
VERTEX
  8
gg1
 10
9.350000
 20
14.650000
  0
SEQEND
  8
gg1
  0
POLYLINE
  8
gg1
 62
1
 40
0.000000
 41
0.000000
 66
  1
  0
VERTEX
  8
gg1
 10
9.290000
 20
14.670000
  0
VERTEX
  8
gg1
 10
9.350000
 20
14.650000
  0
SEQEND
  8
gg1
  0
POLYLINE
  8
gg1
 62
1
 40
0.000000
 41
0.000000
 66
  1
  0
VERTEX
  8
gg1
 10
5.650000
 20
14.650000
  0
VERTEX
  8
gg1
 10
7.283100
 20
14.650000
  0
SEQEND
  8
gg1
  0
POLYLINE
  8
gg1
 62
1
 40
0.000000
 41
0.000000
 66
  1
  0
VERTEX
  8
gg1
 10
7.684900
 20
14.650000
  0
VERTEX
  8
gg1
 10
9.350000
 20
14.650000
  0
SEQEND
  8
gg1
  0
POLYLINE
  8
gg1
 62
1
 40
0.000000
 41
0.000000
 66
  1
  0
VERTEX
  8
gg1
 10
5.650000
 20
14.640000
  0
VERTEX
  8
gg1
 10
5.650000
 20
16.489500
  0
SEQEND
  8
gg1
  0
POLYLINE
  8
gg1
 62
1
 40
0.000000
 41
0.000000
 66
  1
  0
VERTEX
  8
gg1
 10
9.350000
 20
14.640000
  0
VERTEX
  8
gg1
 10
9.350000
 20
16.489500
  0
SEQEND
  8
gg1
  0
POLYLINE
  8
gg1
 62
1
 40
0.000000
 41
0.000000
 66
  1
  0
VERTEX
  8
gg1
 10
5.286000
 20
16.429100
  0
VERTEX
  8
gg1
 10
5.276000
 20
16.439100
  0
VERTEX
  8
gg1
 10
5.276000
 20
16.459100
  0
VERTEX
  8
gg1
 10
5.286000
 20
16.469000
  0
VERTEX
  8
gg1
 10
5.296000
 20
16.469000
  0
VERTEX
  8
gg1
 10
5.306000
 20
16.459100
  0
VERTEX
  8
gg1
 10
5.306000
 20
16.449100
  0
VERTEX
  8
gg1
 10
5.306000
 20
16.459100
  0
VERTEX
  8
gg1
 10
5.316000
 20
16.469000
  0
VERTEX
  8
gg1
 10
5.326000
 20
16.469000
  0
VERTEX
  8
gg1
 10
5.336000
 20
16.459100
  0
VERTEX
  8
gg1
 10
5.336000
 20
16.439100
  0
VERTEX
  8
gg1
 10
5.326000
 20
16.429100
  0
SEQEND
  8
gg1
  0
POLYLINE
  8
gg1
 62
1
 40
0.000000
 41
0.000000
 66
  1
  0
VERTEX
  8
gg1
 10
5.336000
 20
16.529000
  0
VERTEX
  8
gg1
 10
5.336000
 20
16.489000
  0
VERTEX
  8
gg1
 10
5.296000
 20
16.529000
  0
VERTEX
  8
gg1
 10
5.286000
 20
16.529000
  0
VERTEX
  8
gg1
 10
5.276000
 20
16.519000
  0
VERTEX
  8
gg1
 10
5.276000
 20
16.499000
  0
VERTEX
  8
gg1
 10
5.286000
 20
16.489000
  0
SEQEND
  8
gg1
  0
POLYLINE
  8
gg1
 62
1
 40
0.000000
 41
0.000000
 66
  1
  0
VERTEX
  8
gg1
 10
5.276000
 20
16.589000
  0
VERTEX
  8
gg1
 10
5.286000
 20
16.569000
  0
VERTEX
  8
gg1
 10
5.306000
 20
16.549000
  0
VERTEX
  8
gg1
 10
5.326000
 20
16.549000
  0
VERTEX
  8
gg1
 10
5.336000
 20
16.559000
  0
VERTEX
  8
gg1
 10
5.336000
 20
16.579000
  0
VERTEX
  8
gg1
 10
5.326000
 20
16.589000
  0
VERTEX
  8
gg1
 10
5.316000
 20
16.589000
  0
VERTEX
  8
gg1
 10
5.306000
 20
16.579000
  0
VERTEX
  8
gg1
 10
5.306000
 20
16.549000
  0
SEQEND
  8
gg1
  0
POLYLINE
  8
gg1
 62
1
 40
0.000000
 41
0.000000
 66
  1
  0
VERTEX
  8
gg1
 10
5.286000
 20
16.609000
  0
VERTEX
  8
gg1
 10
5.276000
 20
16.619000
  0
VERTEX
  8
gg1
 10
5.276000
 20
16.639000
  0
VERTEX
  8
gg1
 10
5.286000
 20
16.649000
  0
VERTEX
  8
gg1
 10
5.326000
 20
16.649000
  0
VERTEX
  8
gg1
 10
5.336000
 20
16.639000
  0
VERTEX
  8
gg1
 10
5.336000
 20
16.619000
  0
VERTEX
  8
gg1
 10
5.326000
 20
16.609000
  0
VERTEX
  8
gg1
 10
5.286000
 20
16.609000
  0
SEQEND
  8
gg1
  0
POLYLINE
  8
gg1
 62
1
 40
0.000000
 41
0.000000
 66
  1
  0
VERTEX
  8
gg1
 10
5.336000
 20
16.669000
  0
VERTEX
  8
gg1
 10
5.296000
 20
16.669000
  0
VERTEX
  8
gg1
 10
5.296000
 20
16.679000
  0
VERTEX
  8
gg1
 10
5.306000
 20
16.689000
  0
VERTEX
  8
gg1
 10
5.336000
 20
16.689000
  0
VERTEX
  8
gg1
 10
5.306000
 20
16.689000
  0
VERTEX
  8
gg1
 10
5.296000
 20
16.699000
  0
VERTEX
  8
gg1
 10
5.306000
 20
16.709000
  0
VERTEX
  8
gg1
 10
5.336000
 20
16.709000
  0
SEQEND
  8
gg1
  0
POLYLINE
  8
gg1
 62
1
 40
0.000000
 41
0.000000
 66
  1
  0
VERTEX
  8
gg1
 10
5.336000
 20
16.729000
  0
VERTEX
  8
gg1
 10
5.336000
 20
16.749000
  0
VERTEX
  8
gg1
 10
5.336000
 20
16.739000
  0
VERTEX
  8
gg1
 10
5.296000
 20
16.739000
  0
VERTEX
  8
gg1
 10
5.296000
 20
16.729000
  0
SEQEND
  8
gg1
  0
POLYLINE
  8
gg1
 62
1
 40
0.000000
 41
0.000000
 66
  1
  0
VERTEX
  8
gg1
 10
5.336000
 20
16.778900
  0
VERTEX
  8
gg1
 10
5.336000
 20
16.798900
  0
VERTEX
  8
gg1
 10
5.336000
 20
16.788900
  0
VERTEX
  8
gg1
 10
5.276000
 20
16.788900
  0
VERTEX
  8
gg1
 10
5.276000
 20
16.778900
  0
SEQEND
  8
gg1
  0
POLYLINE
  8
gg1
 62
1
 40
0.000000
 41
0.000000
 66
  1
  0
VERTEX
  8
gg1
 10
7.299100
 20
14.664000
  0
VERTEX
  8
gg1
 10
7.309100
 20
14.674000
  0
VERTEX
  8
gg1
 10
7.329100
 20
14.674000
  0
VERTEX
  8
gg1
 10
7.339000
 20
14.664000
  0
VERTEX
  8
gg1
 10
7.339000
 20
14.654000
  0
VERTEX
  8
gg1
 10
7.329100
 20
14.644000
  0
VERTEX
  8
gg1
 10
7.319100
 20
14.644000
  0
VERTEX
  8
gg1
 10
7.329100
 20
14.644000
  0
VERTEX
  8
gg1
 10
7.339000
 20
14.634000
  0
VERTEX
  8
gg1
 10
7.339000
 20
14.624000
  0
VERTEX
  8
gg1
 10
7.329100
 20
14.614000
  0
VERTEX
  8
gg1
 10
7.309100
 20
14.614000
  0
VERTEX
  8
gg1
 10
7.299100
 20
14.624000
  0
SEQEND
  8
gg1
  0
POLYLINE
  8
gg1
 62
1
 40
0.000000
 41
0.000000
 66
  1
  0
VERTEX
  8
gg1
 10
7.359000
 20
14.674000
  0
VERTEX
  8
gg1
 10
7.399000
 20
14.674000
  0
VERTEX
  8
gg1
 10
7.399000
 20
14.664000
  0
VERTEX
  8
gg1
 10
7.359000
 20
14.624000
  0
VERTEX
  8
gg1
 10
7.359000
 20
14.614000
  0
SEQEND
  8
gg1
  0
POLYLINE
  8
gg1
 62
1
 40
0.000000
 41
0.000000
 66
  1
  0
VERTEX
  8
gg1
 10
7.419000
 20
14.664000
  0
VERTEX
  8
gg1
 10
7.429000
 20
14.674000
  0
VERTEX
  8
gg1
 10
7.449000
 20
14.674000
  0
VERTEX
  8
gg1
 10
7.459000
 20
14.664000
  0
VERTEX
  8
gg1
 10
7.459000
 20
14.624000
  0
VERTEX
  8
gg1
 10
7.449000
 20
14.614000
  0
VERTEX
  8
gg1
 10
7.429000
 20
14.614000
  0
VERTEX
  8
gg1
 10
7.419000
 20
14.624000
  0
VERTEX
  8
gg1
 10
7.419000
 20
14.664000
  0
SEQEND
  8
gg1
  0
POLYLINE
  8
gg1
 62
1
 40
0.000000
 41
0.000000
 66
  1
  0
VERTEX
  8
gg1
 10
7.479000
 20
14.664000
  0
VERTEX
  8
gg1
 10
7.489000
 20
14.674000
  0
VERTEX
  8
gg1
 10
7.509000
 20
14.674000
  0
VERTEX
  8
gg1
 10
7.519000
 20
14.664000
  0
VERTEX
  8
gg1
 10
7.519000
 20
14.624000
  0
VERTEX
  8
gg1
 10
7.509000
 20
14.614000
  0
VERTEX
  8
gg1
 10
7.489000
 20
14.614000
  0
VERTEX
  8
gg1
 10
7.479000
 20
14.624000
  0
VERTEX
  8
gg1
 10
7.479000
 20
14.664000
  0
SEQEND
  8
gg1
  0
POLYLINE
  8
gg1
 62
1
 40
0.000000
 41
0.000000
 66
  1
  0
VERTEX
  8
gg1
 10
7.539000
 20
14.614000
  0
VERTEX
  8
gg1
 10
7.539000
 20
14.654000
  0
VERTEX
  8
gg1
 10
7.549000
 20
14.654000
  0
VERTEX
  8
gg1
 10
7.559000
 20
14.644000
  0
VERTEX
  8
gg1
 10
7.559000
 20
14.614000
  0
VERTEX
  8
gg1
 10
7.559000
 20
14.644000
  0
VERTEX
  8
gg1
 10
7.569000
 20
14.654000
  0
VERTEX
  8
gg1
 10
7.579000
 20
14.644000
  0
VERTEX
  8
gg1
 10
7.579000
 20
14.614000
  0
SEQEND
  8
gg1
  0
POLYLINE
  8
gg1
 62
1
 40
0.000000
 41
0.000000
 66
  1
  0
VERTEX
  8
gg1
 10
7.599000
 20
14.614000
  0
VERTEX
  8
gg1
 10
7.619000
 20
14.614000
  0
VERTEX
  8
gg1
 10
7.609000
 20
14.614000
  0
VERTEX
  8
gg1
 10
7.609000
 20
14.654000
  0
VERTEX
  8
gg1
 10
7.599000
 20
14.654000
  0
SEQEND
  8
gg1
  0
POLYLINE
  8
gg1
 62
1
 40
0.000000
 41
0.000000
 66
  1
  0
VERTEX
  8
gg1
 10
7.648900
 20
14.614000
  0
VERTEX
  8
gg1
 10
7.668900
 20
14.614000
  0
VERTEX
  8
gg1
 10
7.658900
 20
14.614000
  0
VERTEX
  8
gg1
 10
7.658900
 20
14.674000
  0
VERTEX
  8
gg1
 10
7.648900
 20
14.674000
  0
SEQEND
  8
gg1
  0
POLYLINE
  8
gg1
 62
1
 40
0.000000
 41
0.000000
 66
  1
  0
VERTEX
  8
gg1
 10
7.230300
 20
17.145700
  0
VERTEX
  8
gg1
 10
7.269700
 20
17.145700
  0
SEQEND
  8
gg1
  0
POLYLINE
  8
gg1
 62
1
 40
0.000000
 41
0.000000
 66
  1
  0
VERTEX
  8
gg1
 10
7.250000
 20
17.126000
  0
VERTEX
  8
gg1
 10
7.250000
 20
17.165400
  0
SEQEND
  8
gg1
  0
POLYLINE
  8
gg1
 62
1
 40
0.000000
 41
0.000000
 66
  1
  0
VERTEX
  8
gg1
 10
7.730300
 20
17.145700
  0
VERTEX
  8
gg1
 10
7.769700
 20
17.145700
  0
SEQEND
  8
gg1
  0
POLYLINE
  8
gg1
 62
1
 40
0.000000
 41
0.000000
 66
  1
  0
VERTEX
  8
gg1
 10
7.750000
 20
17.126000
  0
VERTEX
  8
gg1
 10
7.750000
 20
17.165400
  0
SEQEND
  8
gg1
  0
POLYLINE
  8
gg1
 62
1
 40
0.000000
 41
0.000000
 66
  1
  0
VERTEX
  8
gg1
 10
7.593100
 20
15.287800
  0
VERTEX
  8
gg1
 10
7.616700
 20
15.287800
  0
SEQEND
  8
gg1
  0
POLYLINE
  8
gg1
 62
1
 40
0.000000
 41
0.000000
 66
  1
  0
VERTEX
  8
gg1
 10
7.604900
 20
15.275900
  0
VERTEX
  8
gg1
 10
7.604900
 20
15.299600
  0
SEQEND
  8
gg1
  0
POLYLINE
  8
gg1
 62
1
 40
0.000000
 41
0.000000
 66
  1
  0
VERTEX
  8
gg1
 10
7.648400
 20
15.268100
  0
VERTEX
  8
gg1
 10
7.674000
 20
15.268100
  0
SEQEND
  8
gg1
  0
POLYLINE
  8
gg1
 62
1
 40
0.000000
 41
0.000000
 66
  1
  0
VERTEX
  8
gg1
 10
7.661200
 20
15.255300
  0
VERTEX
  8
gg1
 10
7.661200
 20
15.280900
  0
SEQEND
  8
gg1
  0
POLYLINE
  8
gg1
 62
1
 40
0.000000
 41
0.000000
 66
  1
  0
VERTEX
  8
gg1
 10
7.876000
 20
15.268100
  0
VERTEX
  8
gg1
 10
7.901600
 20
15.268100
  0
SEQEND
  8
gg1
  0
POLYLINE
  8
gg1
 62
1
 40
0.000000
 41
0.000000
 66
  1
  0
VERTEX
  8
gg1
 10
7.888800
 20
15.255300
  0
VERTEX
  8
gg1
 10
7.888800
 20
15.280900
  0
SEQEND
  8
gg1
  0
POLYLINE
  8
gg1
 62
1
 40
0.000000
 41
0.000000
 66
  1
  0
VERTEX
  8
gg1
 10
7.933300
 20
15.287800
  0
VERTEX
  8
gg1
 10
7.956900
 20
15.287800
  0
SEQEND
  8
gg1
  0
POLYLINE
  8
gg1
 62
1
 40
0.000000
 41
0.000000
 66
  1
  0
VERTEX
  8
gg1
 10
7.945100
 20
15.275900
  0
VERTEX
  8
gg1
 10
7.945100
 20
15.299600
  0
SEQEND
  8
gg1
  0
POLYLINE
  8
gg1
 62
1
 40
0.000000
 41
0.000000
 66
  1
  0
VERTEX
  8
gg1
 10
7.593100
 20
15.123200
  0
VERTEX
  8
gg1
 10
7.616700
 20
15.123200
  0
SEQEND
  8
gg1
  0
POLYLINE
  8
gg1
 62
1
 40
0.000000
 41
0.000000
 66
  1
  0
VERTEX
  8
gg1
 10
7.604900
 20
15.111400
  0
VERTEX
  8
gg1
 10
7.604900
 20
15.135000
  0
SEQEND
  8
gg1
  0
POLYLINE
  8
gg1
 62
1
 40
0.000000
 41
0.000000
 66
  1
  0
VERTEX
  8
gg1
 10
7.933300
 20
15.123200
  0
VERTEX
  8
gg1
 10
7.956900
 20
15.123200
  0
SEQEND
  8
gg1
  0
POLYLINE
  8
gg1
 62
1
 40
0.000000
 41
0.000000
 66
  1
  0
VERTEX
  8
gg1
 10
7.945100
 20
15.111400
  0
VERTEX
  8
gg1
 10
7.945100
 20
15.135000
  0
SEQEND
  8
gg1
  0
POLYLINE
  8
gg1
 62
1
 40
0.000000
 41
0.000000
 66
  1
  0
VERTEX
  8
gg1
 10
7.195000
 20
16.000000
  0
VERTEX
  8
gg1
 10
7.215000
 20
16.000000
  0
SEQEND
  8
gg1
  0
POLYLINE
  8
gg1
 62
1
 40
0.000000
 41
0.000000
 66
  1
  0
VERTEX
  8
gg1
 10
7.205000
 20
15.990000
  0
VERTEX
  8
gg1
 10
7.205000
 20
16.010000
  0
SEQEND
  8
gg1
  0
POLYLINE
  8
gg1
 62
1
 40
0.000000
 41
0.000000
 66
  1
  0
VERTEX
  8
gg1
 10
6.936200
 20
15.314600
  0
VERTEX
  8
gg1
 10
6.963800
 20
15.314600
  0
SEQEND
  8
gg1
  0
POLYLINE
  8
gg1
 62
1
 40
0.000000
 41
0.000000
 66
  1
  0
VERTEX
  8
gg1
 10
6.950000
 20
15.300800
  0
VERTEX
  8
gg1
 10
6.950000
 20
15.328300
  0
SEQEND
  8
gg1
  0
POLYLINE
  8
gg1
 62
1
 40
0.000000
 41
0.000000
 66
  1
  0
VERTEX
  8
gg1
 10
6.936200
 20
15.385400
  0
VERTEX
  8
gg1
 10
6.963800
 20
15.385400
  0
SEQEND
  8
gg1
  0
POLYLINE
  8
gg1
 62
1
 40
0.000000
 41
0.000000
 66
  1
  0
VERTEX
  8
gg1
 10
6.950000
 20
15.371700
  0
VERTEX
  8
gg1
 10
6.950000
 20
15.399200
  0
SEQEND
  8
gg1
  0
POLYLINE
  8
gg1
 62
1
 40
0.000000
 41
0.000000
 66
  1
  0
VERTEX
  8
gg1
 10
7.130000
 20
18.210000
  0
VERTEX
  8
gg1
 10
7.170000
 20
18.210000
  0
SEQEND
  8
gg1
  0
POLYLINE
  8
gg1
 62
1
 40
0.000000
 41
0.000000
 66
  1
  0
VERTEX
  8
gg1
 10
7.150000
 20
18.190000
  0
VERTEX
  8
gg1
 10
7.150000
 20
18.230000
  0
SEQEND
  8
gg1
  0
POLYLINE
  8
gg1
 62
1
 40
0.000000
 41
0.000000
 66
  1
  0
VERTEX
  8
gg1
 10
7.230000
 20
18.210000
  0
VERTEX
  8
gg1
 10
7.270000
 20
18.210000
  0
SEQEND
  8
gg1
  0
POLYLINE
  8
gg1
 62
1
 40
0.000000
 41
0.000000
 66
  1
  0
VERTEX
  8
gg1
 10
7.250000
 20
18.190000
  0
VERTEX
  8
gg1
 10
7.250000
 20
18.230000
  0
SEQEND
  8
gg1
  0
POLYLINE
  8
gg1
 62
1
 40
0.000000
 41
0.000000
 66
  1
  0
VERTEX
  8
gg1
 10
7.330000
 20
18.210000
  0
VERTEX
  8
gg1
 10
7.370000
 20
18.210000
  0
SEQEND
  8
gg1
  0
POLYLINE
  8
gg1
 62
1
 40
0.000000
 41
0.000000
 66
  1
  0
VERTEX
  8
gg1
 10
7.350000
 20
18.190000
  0
VERTEX
  8
gg1
 10
7.350000
 20
18.230000
  0
SEQEND
  8
gg1
  0
POLYLINE
  8
gg1
 62
1
 40
0.000000
 41
0.000000
 66
  1
  0
VERTEX
  8
gg1
 10
7.830000
 20
18.210000
  0
VERTEX
  8
gg1
 10
7.870000
 20
18.210000
  0
SEQEND
  8
gg1
  0
POLYLINE
  8
gg1
 62
1
 40
0.000000
 41
0.000000
 66
  1
  0
VERTEX
  8
gg1
 10
7.850000
 20
18.190000
  0
VERTEX
  8
gg1
 10
7.850000
 20
18.230000
  0
SEQEND
  8
gg1
  0
POLYLINE
  8
gg1
 62
1
 40
0.000000
 41
0.000000
 66
  1
  0
VERTEX
  8
gg1
 10
7.930000
 20
18.210000
  0
VERTEX
  8
gg1
 10
7.970000
 20
18.210000
  0
SEQEND
  8
gg1
  0
POLYLINE
  8
gg1
 62
1
 40
0.000000
 41
0.000000
 66
  1
  0
VERTEX
  8
gg1
 10
7.950000
 20
18.190000
  0
VERTEX
  8
gg1
 10
7.950000
 20
18.230000
  0
SEQEND
  8
gg1
  0
POLYLINE
  8
gg1
 62
1
 40
0.000000
 41
0.000000
 66
  1
  0
VERTEX
  8
gg1
 10
8.030000
 20
18.210000
  0
VERTEX
  8
gg1
 10
8.070000
 20
18.210000
  0
SEQEND
  8
gg1
  0
POLYLINE
  8
gg1
 62
1
 40
0.000000
 41
0.000000
 66
  1
  0
VERTEX
  8
gg1
 10
8.050000
 20
18.190000
  0
VERTEX
  8
gg1
 10
8.050000
 20
18.230000
  0
SEQEND
  8
gg1
  0
POLYLINE
  8
gg1
 62
1
 40
0.000000
 41
0.000000
 66
  1
  0
VERTEX
  8
gg1
 10
8.130000
 20
18.210000
  0
VERTEX
  8
gg1
 10
8.170000
 20
18.210000
  0
SEQEND
  8
gg1
  0
POLYLINE
  8
gg1
 62
1
 40
0.000000
 41
0.000000
 66
  1
  0
VERTEX
  8
gg1
 10
8.150000
 20
18.190000
  0
VERTEX
  8
gg1
 10
8.150000
 20
18.230000
  0
SEQEND
  8
gg1
  0
POLYLINE
  8
gg1
 62
1
 40
0.000000
 41
0.000000
 66
  1
  0
VERTEX
  8
gg1
 10
8.230000
 20
18.210000
  0
VERTEX
  8
gg1
 10
8.270000
 20
18.210000
  0
SEQEND
  8
gg1
  0
POLYLINE
  8
gg1
 62
1
 40
0.000000
 41
0.000000
 66
  1
  0
VERTEX
  8
gg1
 10
8.250000
 20
18.190000
  0
VERTEX
  8
gg1
 10
8.250000
 20
18.230000
  0
SEQEND
  8
gg1
  0
POLYLINE
  8
gg1
 62
1
 40
0.000000
 41
0.000000
 66
  1
  0
VERTEX
  8
gg1
 10
7.730000
 20
18.210000
  0
VERTEX
  8
gg1
 10
7.770000
 20
18.210000
  0
SEQEND
  8
gg1
  0
POLYLINE
  8
gg1
 62
1
 40
0.000000
 41
0.000000
 66
  1
  0
VERTEX
  8
gg1
 10
7.750000
 20
18.190000
  0
VERTEX
  8
gg1
 10
7.750000
 20
18.230000
  0
SEQEND
  8
gg1
  0
POLYLINE
  8
gg1
 62
1
 40
0.000000
 41
0.000000
 66
  1
  0
VERTEX
  8
gg1
 10
7.630000
 20
18.210000
  0
VERTEX
  8
gg1
 10
7.670000
 20
18.210000
  0
SEQEND
  8
gg1
  0
POLYLINE
  8
gg1
 62
1
 40
0.000000
 41
0.000000
 66
  1
  0
VERTEX
  8
gg1
 10
7.650000
 20
18.190000
  0
VERTEX
  8
gg1
 10
7.650000
 20
18.230000
  0
SEQEND
  8
gg1
  0
POLYLINE
  8
gg1
 62
1
 40
0.000000
 41
0.000000
 66
  1
  0
VERTEX
  8
gg1
 10
7.530000
 20
18.210000
  0
VERTEX
  8
gg1
 10
7.570000
 20
18.210000
  0
SEQEND
  8
gg1
  0
POLYLINE
  8
gg1
 62
1
 40
0.000000
 41
0.000000
 66
  1
  0
VERTEX
  8
gg1
 10
7.550000
 20
18.190000
  0
VERTEX
  8
gg1
 10
7.550000
 20
18.230000
  0
SEQEND
  8
gg1
  0
POLYLINE
  8
gg1
 62
1
 40
0.000000
 41
0.000000
 66
  1
  0
VERTEX
  8
gg1
 10
7.430000
 20
18.210000
  0
VERTEX
  8
gg1
 10
7.470000
 20
18.210000
  0
SEQEND
  8
gg1
  0
POLYLINE
  8
gg1
 62
1
 40
0.000000
 41
0.000000
 66
  1
  0
VERTEX
  8
gg1
 10
7.450000
 20
18.190000
  0
VERTEX
  8
gg1
 10
7.450000
 20
18.230000
  0
SEQEND
  8
gg1
  0
POLYLINE
  8
gg1
 62
1
 40
0.000000
 41
0.000000
 66
  1
  0
VERTEX
  8
gg1
 10
7.030000
 20
18.210000
  0
VERTEX
  8
gg1
 10
7.070000
 20
18.210000
  0
SEQEND
  8
gg1
  0
POLYLINE
  8
gg1
 62
1
 40
0.000000
 41
0.000000
 66
  1
  0
VERTEX
  8
gg1
 10
7.050000
 20
18.190000
  0
VERTEX
  8
gg1
 10
7.050000
 20
18.230000
  0
SEQEND
  8
gg1
  0
POLYLINE
  8
gg1
 62
1
 40
0.000000
 41
0.000000
 66
  1
  0
VERTEX
  8
gg1
 10
6.930000
 20
18.210000
  0
VERTEX
  8
gg1
 10
6.970000
 20
18.210000
  0
SEQEND
  8
gg1
  0
POLYLINE
  8
gg1
 62
1
 40
0.000000
 41
0.000000
 66
  1
  0
VERTEX
  8
gg1
 10
6.950000
 20
18.190000
  0
VERTEX
  8
gg1
 10
6.950000
 20
18.230000
  0
SEQEND
  8
gg1
  0
POLYLINE
  8
gg1
 62
1
 40
0.000000
 41
0.000000
 66
  1
  0
VERTEX
  8
gg1
 10
6.830000
 20
18.210000
  0
VERTEX
  8
gg1
 10
6.870000
 20
18.210000
  0
SEQEND
  8
gg1
  0
POLYLINE
  8
gg1
 62
1
 40
0.000000
 41
0.000000
 66
  1
  0
VERTEX
  8
gg1
 10
6.850000
 20
18.190000
  0
VERTEX
  8
gg1
 10
6.850000
 20
18.230000
  0
SEQEND
  8
gg1
  0
POLYLINE
  8
gg1
 62
1
 40
0.000000
 41
0.000000
 66
  1
  0
VERTEX
  8
gg1
 10
6.730000
 20
18.210000
  0
VERTEX
  8
gg1
 10
6.770000
 20
18.210000
  0
SEQEND
  8
gg1
  0
POLYLINE
  8
gg1
 62
1
 40
0.000000
 41
0.000000
 66
  1
  0
VERTEX
  8
gg1
 10
6.750000
 20
18.190000
  0
VERTEX
  8
gg1
 10
6.750000
 20
18.230000
  0
SEQEND
  8
gg1
  0
POLYLINE
  8
gg1
 62
1
 40
0.000000
 41
0.000000
 66
  1
  0
VERTEX
  8
gg1
 10
6.930000
 20
18.110000
  0
VERTEX
  8
gg1
 10
6.970000
 20
18.110000
  0
SEQEND
  8
gg1
  0
POLYLINE
  8
gg1
 62
1
 40
0.000000
 41
0.000000
 66
  1
  0
VERTEX
  8
gg1
 10
6.950000
 20
18.090000
  0
VERTEX
  8
gg1
 10
6.950000
 20
18.130000
  0
SEQEND
  8
gg1
  0
POLYLINE
  8
gg1
 62
1
 40
0.000000
 41
0.000000
 66
  1
  0
VERTEX
  8
gg1
 10
7.030000
 20
18.110000
  0
VERTEX
  8
gg1
 10
7.070000
 20
18.110000
  0
SEQEND
  8
gg1
  0
POLYLINE
  8
gg1
 62
1
 40
0.000000
 41
0.000000
 66
  1
  0
VERTEX
  8
gg1
 10
7.050000
 20
18.090000
  0
VERTEX
  8
gg1
 10
7.050000
 20
18.130000
  0
SEQEND
  8
gg1
  0
POLYLINE
  8
gg1
 62
1
 40
0.000000
 41
0.000000
 66
  1
  0
VERTEX
  8
gg1
 10
7.130000
 20
18.110000
  0
VERTEX
  8
gg1
 10
7.170000
 20
18.110000
  0
SEQEND
  8
gg1
  0
POLYLINE
  8
gg1
 62
1
 40
0.000000
 41
0.000000
 66
  1
  0
VERTEX
  8
gg1
 10
7.150000
 20
18.090000
  0
VERTEX
  8
gg1
 10
7.150000
 20
18.130000
  0
SEQEND
  8
gg1
  0
POLYLINE
  8
gg1
 62
1
 40
0.000000
 41
0.000000
 66
  1
  0
VERTEX
  8
gg1
 10
7.630000
 20
18.110000
  0
VERTEX
  8
gg1
 10
7.670000
 20
18.110000
  0
SEQEND
  8
gg1
  0
POLYLINE
  8
gg1
 62
1
 40
0.000000
 41
0.000000
 66
  1
  0
VERTEX
  8
gg1
 10
7.650000
 20
18.090000
  0
VERTEX
  8
gg1
 10
7.650000
 20
18.130000
  0
SEQEND
  8
gg1
  0
POLYLINE
  8
gg1
 62
1
 40
0.000000
 41
0.000000
 66
  1
  0
VERTEX
  8
gg1
 10
7.730000
 20
18.110000
  0
VERTEX
  8
gg1
 10
7.770000
 20
18.110000
  0
SEQEND
  8
gg1
  0
POLYLINE
  8
gg1
 62
1
 40
0.000000
 41
0.000000
 66
  1
  0
VERTEX
  8
gg1
 10
7.750000
 20
18.090000
  0
VERTEX
  8
gg1
 10
7.750000
 20
18.130000
  0
SEQEND
  8
gg1
  0
POLYLINE
  8
gg1
 62
1
 40
0.000000
 41
0.000000
 66
  1
  0
VERTEX
  8
gg1
 10
7.830000
 20
18.110000
  0
VERTEX
  8
gg1
 10
7.870000
 20
18.110000
  0
SEQEND
  8
gg1
  0
POLYLINE
  8
gg1
 62
1
 40
0.000000
 41
0.000000
 66
  1
  0
VERTEX
  8
gg1
 10
7.850000
 20
18.090000
  0
VERTEX
  8
gg1
 10
7.850000
 20
18.130000
  0
SEQEND
  8
gg1
  0
POLYLINE
  8
gg1
 62
1
 40
0.000000
 41
0.000000
 66
  1
  0
VERTEX
  8
gg1
 10
7.930000
 20
18.110000
  0
VERTEX
  8
gg1
 10
7.970000
 20
18.110000
  0
SEQEND
  8
gg1
  0
POLYLINE
  8
gg1
 62
1
 40
0.000000
 41
0.000000
 66
  1
  0
VERTEX
  8
gg1
 10
7.950000
 20
18.090000
  0
VERTEX
  8
gg1
 10
7.950000
 20
18.130000
  0
SEQEND
  8
gg1
  0
POLYLINE
  8
gg1
 62
1
 40
0.000000
 41
0.000000
 66
  1
  0
VERTEX
  8
gg1
 10
8.030000
 20
18.110000
  0
VERTEX
  8
gg1
 10
8.070000
 20
18.110000
  0
SEQEND
  8
gg1
  0
POLYLINE
  8
gg1
 62
1
 40
0.000000
 41
0.000000
 66
  1
  0
VERTEX
  8
gg1
 10
8.050000
 20
18.090000
  0
VERTEX
  8
gg1
 10
8.050000
 20
18.130000
  0
SEQEND
  8
gg1
  0
POLYLINE
  8
gg1
 62
1
 40
0.000000
 41
0.000000
 66
  1
  0
VERTEX
  8
gg1
 10
7.530000
 20
18.110000
  0
VERTEX
  8
gg1
 10
7.570000
 20
18.110000
  0
SEQEND
  8
gg1
  0
POLYLINE
  8
gg1
 62
1
 40
0.000000
 41
0.000000
 66
  1
  0
VERTEX
  8
gg1
 10
7.550000
 20
18.090000
  0
VERTEX
  8
gg1
 10
7.550000
 20
18.130000
  0
SEQEND
  8
gg1
  0
POLYLINE
  8
gg1
 62
1
 40
0.000000
 41
0.000000
 66
  1
  0
VERTEX
  8
gg1
 10
7.430000
 20
18.110000
  0
VERTEX
  8
gg1
 10
7.470000
 20
18.110000
  0
SEQEND
  8
gg1
  0
POLYLINE
  8
gg1
 62
1
 40
0.000000
 41
0.000000
 66
  1
  0
VERTEX
  8
gg1
 10
7.450000
 20
18.090000
  0
VERTEX
  8
gg1
 10
7.450000
 20
18.130000
  0
SEQEND
  8
gg1
  0
POLYLINE
  8
gg1
 62
1
 40
0.000000
 41
0.000000
 66
  1
  0
VERTEX
  8
gg1
 10
7.330000
 20
18.110000
  0
VERTEX
  8
gg1
 10
7.370000
 20
18.110000
  0
SEQEND
  8
gg1
  0
POLYLINE
  8
gg1
 62
1
 40
0.000000
 41
0.000000
 66
  1
  0
VERTEX
  8
gg1
 10
7.350000
 20
18.090000
  0
VERTEX
  8
gg1
 10
7.350000
 20
18.130000
  0
SEQEND
  8
gg1
  0
POLYLINE
  8
gg1
 62
1
 40
0.000000
 41
0.000000
 66
  1
  0
VERTEX
  8
gg1
 10
7.230000
 20
18.110000
  0
VERTEX
  8
gg1
 10
7.270000
 20
18.110000
  0
SEQEND
  8
gg1
  0
POLYLINE
  8
gg1
 62
1
 40
0.000000
 41
0.000000
 66
  1
  0
VERTEX
  8
gg1
 10
7.250000
 20
18.090000
  0
VERTEX
  8
gg1
 10
7.250000
 20
18.130000
  0
SEQEND
  8
gg1
  0
POLYLINE
  8
gg1
 62
1
 40
0.000000
 41
0.000000
 66
  1
  0
VERTEX
  8
gg1
 10
6.930000
 20
18.010000
  0
VERTEX
  8
gg1
 10
6.970000
 20
18.010000
  0
SEQEND
  8
gg1
  0
POLYLINE
  8
gg1
 62
1
 40
0.000000
 41
0.000000
 66
  1
  0
VERTEX
  8
gg1
 10
6.950000
 20
17.990000
  0
VERTEX
  8
gg1
 10
6.950000
 20
18.030000
  0
SEQEND
  8
gg1
  0
POLYLINE
  8
gg1
 62
1
 40
0.000000
 41
0.000000
 66
  1
  0
VERTEX
  8
gg1
 10
7.030000
 20
18.010000
  0
VERTEX
  8
gg1
 10
7.070000
 20
18.010000
  0
SEQEND
  8
gg1
  0
POLYLINE
  8
gg1
 62
1
 40
0.000000
 41
0.000000
 66
  1
  0
VERTEX
  8
gg1
 10
7.050000
 20
17.990000
  0
VERTEX
  8
gg1
 10
7.050000
 20
18.030000
  0
SEQEND
  8
gg1
  0
POLYLINE
  8
gg1
 62
1
 40
0.000000
 41
0.000000
 66
  1
  0
VERTEX
  8
gg1
 10
7.130000
 20
18.010000
  0
VERTEX
  8
gg1
 10
7.170000
 20
18.010000
  0
SEQEND
  8
gg1
  0
POLYLINE
  8
gg1
 62
1
 40
0.000000
 41
0.000000
 66
  1
  0
VERTEX
  8
gg1
 10
7.150000
 20
17.990000
  0
VERTEX
  8
gg1
 10
7.150000
 20
18.030000
  0
SEQEND
  8
gg1
  0
POLYLINE
  8
gg1
 62
1
 40
0.000000
 41
0.000000
 66
  1
  0
VERTEX
  8
gg1
 10
7.630000
 20
18.010000
  0
VERTEX
  8
gg1
 10
7.670000
 20
18.010000
  0
SEQEND
  8
gg1
  0
POLYLINE
  8
gg1
 62
1
 40
0.000000
 41
0.000000
 66
  1
  0
VERTEX
  8
gg1
 10
7.650000
 20
17.990000
  0
VERTEX
  8
gg1
 10
7.650000
 20
18.030000
  0
SEQEND
  8
gg1
  0
POLYLINE
  8
gg1
 62
1
 40
0.000000
 41
0.000000
 66
  1
  0
VERTEX
  8
gg1
 10
7.730000
 20
18.010000
  0
VERTEX
  8
gg1
 10
7.770000
 20
18.010000
  0
SEQEND
  8
gg1
  0
POLYLINE
  8
gg1
 62
1
 40
0.000000
 41
0.000000
 66
  1
  0
VERTEX
  8
gg1
 10
7.750000
 20
17.990000
  0
VERTEX
  8
gg1
 10
7.750000
 20
18.030000
  0
SEQEND
  8
gg1
  0
POLYLINE
  8
gg1
 62
1
 40
0.000000
 41
0.000000
 66
  1
  0
VERTEX
  8
gg1
 10
7.830000
 20
18.010000
  0
VERTEX
  8
gg1
 10
7.870000
 20
18.010000
  0
SEQEND
  8
gg1
  0
POLYLINE
  8
gg1
 62
1
 40
0.000000
 41
0.000000
 66
  1
  0
VERTEX
  8
gg1
 10
7.850000
 20
17.990000
  0
VERTEX
  8
gg1
 10
7.850000
 20
18.030000
  0
SEQEND
  8
gg1
  0
POLYLINE
  8
gg1
 62
1
 40
0.000000
 41
0.000000
 66
  1
  0
VERTEX
  8
gg1
 10
7.930000
 20
18.010000
  0
VERTEX
  8
gg1
 10
7.970000
 20
18.010000
  0
SEQEND
  8
gg1
  0
POLYLINE
  8
gg1
 62
1
 40
0.000000
 41
0.000000
 66
  1
  0
VERTEX
  8
gg1
 10
7.950000
 20
17.990000
  0
VERTEX
  8
gg1
 10
7.950000
 20
18.030000
  0
SEQEND
  8
gg1
  0
POLYLINE
  8
gg1
 62
1
 40
0.000000
 41
0.000000
 66
  1
  0
VERTEX
  8
gg1
 10
8.030000
 20
18.010000
  0
VERTEX
  8
gg1
 10
8.070000
 20
18.010000
  0
SEQEND
  8
gg1
  0
POLYLINE
  8
gg1
 62
1
 40
0.000000
 41
0.000000
 66
  1
  0
VERTEX
  8
gg1
 10
8.050000
 20
17.990000
  0
VERTEX
  8
gg1
 10
8.050000
 20
18.030000
  0
SEQEND
  8
gg1
  0
POLYLINE
  8
gg1
 62
1
 40
0.000000
 41
0.000000
 66
  1
  0
VERTEX
  8
gg1
 10
7.530000
 20
18.010000
  0
VERTEX
  8
gg1
 10
7.570000
 20
18.010000
  0
SEQEND
  8
gg1
  0
POLYLINE
  8
gg1
 62
1
 40
0.000000
 41
0.000000
 66
  1
  0
VERTEX
  8
gg1
 10
7.550000
 20
17.990000
  0
VERTEX
  8
gg1
 10
7.550000
 20
18.030000
  0
SEQEND
  8
gg1
  0
POLYLINE
  8
gg1
 62
1
 40
0.000000
 41
0.000000
 66
  1
  0
VERTEX
  8
gg1
 10
7.430000
 20
18.010000
  0
VERTEX
  8
gg1
 10
7.470000
 20
18.010000
  0
SEQEND
  8
gg1
  0
POLYLINE
  8
gg1
 62
1
 40
0.000000
 41
0.000000
 66
  1
  0
VERTEX
  8
gg1
 10
7.450000
 20
17.990000
  0
VERTEX
  8
gg1
 10
7.450000
 20
18.030000
  0
SEQEND
  8
gg1
  0
POLYLINE
  8
gg1
 62
1
 40
0.000000
 41
0.000000
 66
  1
  0
VERTEX
  8
gg1
 10
7.330000
 20
18.010000
  0
VERTEX
  8
gg1
 10
7.370000
 20
18.010000
  0
SEQEND
  8
gg1
  0
POLYLINE
  8
gg1
 62
1
 40
0.000000
 41
0.000000
 66
  1
  0
VERTEX
  8
gg1
 10
7.350000
 20
17.990000
  0
VERTEX
  8
gg1
 10
7.350000
 20
18.030000
  0
SEQEND
  8
gg1
  0
POLYLINE
  8
gg1
 62
1
 40
0.000000
 41
0.000000
 66
  1
  0
VERTEX
  8
gg1
 10
7.230000
 20
18.010000
  0
VERTEX
  8
gg1
 10
7.270000
 20
18.010000
  0
SEQEND
  8
gg1
  0
POLYLINE
  8
gg1
 62
1
 40
0.000000
 41
0.000000
 66
  1
  0
VERTEX
  8
gg1
 10
7.250000
 20
17.990000
  0
VERTEX
  8
gg1
 10
7.250000
 20
18.030000
  0
SEQEND
  8
gg1
  0
POLYLINE
  8
gg1
 62
1
 40
0.000000
 41
0.000000
 66
  1
  0
VERTEX
  8
gg1
 10
8.596200
 20
15.734600
  0
VERTEX
  8
gg1
 10
8.623800
 20
15.734600
  0
SEQEND
  8
gg1
  0
POLYLINE
  8
gg1
 62
1
 40
0.000000
 41
0.000000
 66
  1
  0
VERTEX
  8
gg1
 10
8.610000
 20
15.720800
  0
VERTEX
  8
gg1
 10
8.610000
 20
15.748300
  0
SEQEND
  8
gg1
  0
POLYLINE
  8
gg1
 62
1
 40
0.000000
 41
0.000000
 66
  1
  0
VERTEX
  8
gg1
 10
8.596200
 20
15.805400
  0
VERTEX
  8
gg1
 10
8.623800
 20
15.805400
  0
SEQEND
  8
gg1
  0
POLYLINE
  8
gg1
 62
1
 40
0.000000
 41
0.000000
 66
  1
  0
VERTEX
  8
gg1
 10
8.610000
 20
15.791700
  0
VERTEX
  8
gg1
 10
8.610000
 20
15.819200
  0
SEQEND
  8
gg1
  0
POLYLINE
  8
gg1
 62
1
 40
0.000000
 41
0.000000
 66
  1
  0
VERTEX
  8
gg1
 10
8.086200
 20
15.314600
  0
VERTEX
  8
gg1
 10
8.113800
 20
15.314600
  0
SEQEND
  8
gg1
  0
POLYLINE
  8
gg1
 62
1
 40
0.000000
 41
0.000000
 66
  1
  0
VERTEX
  8
gg1
 10
8.100000
 20
15.300800
  0
VERTEX
  8
gg1
 10
8.100000
 20
15.328300
  0
SEQEND
  8
gg1
  0
POLYLINE
  8
gg1
 62
1
 40
0.000000
 41
0.000000
 66
  1
  0
VERTEX
  8
gg1
 10
8.086200
 20
15.385400
  0
VERTEX
  8
gg1
 10
8.113800
 20
15.385400
  0
SEQEND
  8
gg1
  0
POLYLINE
  8
gg1
 62
1
 40
0.000000
 41
0.000000
 66
  1
  0
VERTEX
  8
gg1
 10
8.100000
 20
15.371700
  0
VERTEX
  8
gg1
 10
8.100000
 20
15.399200
  0
SEQEND
  8
gg1
  0
POLYLINE
  8
gg1
 62
1
 40
0.000000
 41
0.000000
 66
  1
  0
VERTEX
  8
gg1
 10
7.436200
 20
15.314600
  0
VERTEX
  8
gg1
 10
7.463800
 20
15.314600
  0
SEQEND
  8
gg1
  0
POLYLINE
  8
gg1
 62
1
 40
0.000000
 41
0.000000
 66
  1
  0
VERTEX
  8
gg1
 10
7.450000
 20
15.300800
  0
VERTEX
  8
gg1
 10
7.450000
 20
15.328300
  0
SEQEND
  8
gg1
  0
POLYLINE
  8
gg1
 62
1
 40
0.000000
 41
0.000000
 66
  1
  0
VERTEX
  8
gg1
 10
7.436200
 20
15.385400
  0
VERTEX
  8
gg1
 10
7.463800
 20
15.385400
  0
SEQEND
  8
gg1
  0
POLYLINE
  8
gg1
 62
1
 40
0.000000
 41
0.000000
 66
  1
  0
VERTEX
  8
gg1
 10
7.450000
 20
15.371700
  0
VERTEX
  8
gg1
 10
7.450000
 20
15.399200
  0
SEQEND
  8
gg1
  0
POLYLINE
  8
gg1
 62
1
 40
0.000000
 41
0.000000
 66
  1
  0
VERTEX
  8
gg1
 10
7.172500
 20
16.702500
  0
VERTEX
  8
gg1
 10
7.207500
 20
16.702500
  0
SEQEND
  8
gg1
  0
POLYLINE
  8
gg1
 62
1
 40
0.000000
 41
0.000000
 66
  1
  0
VERTEX
  8
gg1
 10
7.190000
 20
16.685000
  0
VERTEX
  8
gg1
 10
7.190000
 20
16.720000
  0
SEQEND
  8
gg1
  0
POLYLINE
  8
gg1
 62
1
 40
0.000000
 41
0.000000
 66
  1
  0
VERTEX
  8
gg1
 10
7.172500
 20
16.850000
  0
VERTEX
  8
gg1
 10
7.207500
 20
16.850000
  0
SEQEND
  8
gg1
  0
POLYLINE
  8
gg1
 62
1
 40
0.000000
 41
0.000000
 66
  1
  0
VERTEX
  8
gg1
 10
7.190000
 20
16.832500
  0
VERTEX
  8
gg1
 10
7.190000
 20
16.867500
  0
SEQEND
  8
gg1
  0
POLYLINE
  8
gg1
 62
1
 40
0.000000
 41
0.000000
 66
  1
  0
VERTEX
  8
gg1
 10
8.330000
 20
15.710000
  0
VERTEX
  8
gg1
 10
8.370000
 20
15.710000
  0
SEQEND
  8
gg1
  0
POLYLINE
  8
gg1
 62
1
 40
0.000000
 41
0.000000
 66
  1
  0
VERTEX
  8
gg1
 10
8.350000
 20
15.690000
  0
VERTEX
  8
gg1
 10
8.350000
 20
15.730000
  0
SEQEND
  8
gg1
  0
POLYLINE
  8
gg1
 62
1
 40
0.000000
 41
0.000000
 66
  1
  0
VERTEX
  8
gg1
 10
8.330000
 20
15.810000
  0
VERTEX
  8
gg1
 10
8.370000
 20
15.810000
  0
SEQEND
  8
gg1
  0
POLYLINE
  8
gg1
 62
1
 40
0.000000
 41
0.000000
 66
  1
  0
VERTEX
  8
gg1
 10
8.350000
 20
15.790000
  0
VERTEX
  8
gg1
 10
8.350000
 20
15.830000
  0
SEQEND
  8
gg1
  0
POLYLINE
  8
gg1
 62
1
 40
0.000000
 41
0.000000
 66
  1
  0
VERTEX
  8
gg1
 10
8.330000
 20
16.210000
  0
VERTEX
  8
gg1
 10
8.370000
 20
16.210000
  0
SEQEND
  8
gg1
  0
POLYLINE
  8
gg1
 62
1
 40
0.000000
 41
0.000000
 66
  1
  0
VERTEX
  8
gg1
 10
8.350000
 20
16.190000
  0
VERTEX
  8
gg1
 10
8.350000
 20
16.230000
  0
SEQEND
  8
gg1
  0
POLYLINE
  8
gg1
 62
1
 40
0.000000
 41
0.000000
 66
  1
  0
VERTEX
  8
gg1
 10
8.330000
 20
16.310000
  0
VERTEX
  8
gg1
 10
8.370000
 20
16.310000
  0
SEQEND
  8
gg1
  0
POLYLINE
  8
gg1
 62
1
 40
0.000000
 41
0.000000
 66
  1
  0
VERTEX
  8
gg1
 10
8.350000
 20
16.290000
  0
VERTEX
  8
gg1
 10
8.350000
 20
16.330000
  0
SEQEND
  8
gg1
  0
POLYLINE
  8
gg1
 62
1
 40
0.000000
 41
0.000000
 66
  1
  0
VERTEX
  8
gg1
 10
8.330000
 20
16.410000
  0
VERTEX
  8
gg1
 10
8.370000
 20
16.410000
  0
SEQEND
  8
gg1
  0
POLYLINE
  8
gg1
 62
1
 40
0.000000
 41
0.000000
 66
  1
  0
VERTEX
  8
gg1
 10
8.350000
 20
16.390000
  0
VERTEX
  8
gg1
 10
8.350000
 20
16.430000
  0
SEQEND
  8
gg1
  0
POLYLINE
  8
gg1
 62
1
 40
0.000000
 41
0.000000
 66
  1
  0
VERTEX
  8
gg1
 10
8.330000
 20
16.510000
  0
VERTEX
  8
gg1
 10
8.370000
 20
16.510000
  0
SEQEND
  8
gg1
  0
POLYLINE
  8
gg1
 62
1
 40
0.000000
 41
0.000000
 66
  1
  0
VERTEX
  8
gg1
 10
8.350000
 20
16.490000
  0
VERTEX
  8
gg1
 10
8.350000
 20
16.530000
  0
SEQEND
  8
gg1
  0
POLYLINE
  8
gg1
 62
1
 40
0.000000
 41
0.000000
 66
  1
  0
VERTEX
  8
gg1
 10
8.330000
 20
17.010000
  0
VERTEX
  8
gg1
 10
8.370000
 20
17.010000
  0
SEQEND
  8
gg1
  0
POLYLINE
  8
gg1
 62
1
 40
0.000000
 41
0.000000
 66
  1
  0
VERTEX
  8
gg1
 10
8.350000
 20
16.990000
  0
VERTEX
  8
gg1
 10
8.350000
 20
17.030000
  0
SEQEND
  8
gg1
  0
POLYLINE
  8
gg1
 62
1
 40
0.000000
 41
0.000000
 66
  1
  0
VERTEX
  8
gg1
 10
8.330000
 20
16.910000
  0
VERTEX
  8
gg1
 10
8.370000
 20
16.910000
  0
SEQEND
  8
gg1
  0
POLYLINE
  8
gg1
 62
1
 40
0.000000
 41
0.000000
 66
  1
  0
VERTEX
  8
gg1
 10
8.350000
 20
16.890000
  0
VERTEX
  8
gg1
 10
8.350000
 20
16.930000
  0
SEQEND
  8
gg1
  0
POLYLINE
  8
gg1
 62
1
 40
0.000000
 41
0.000000
 66
  1
  0
VERTEX
  8
gg1
 10
8.330000
 20
16.810000
  0
VERTEX
  8
gg1
 10
8.370000
 20
16.810000
  0
SEQEND
  8
gg1
  0
POLYLINE
  8
gg1
 62
1
 40
0.000000
 41
0.000000
 66
  1
  0
VERTEX
  8
gg1
 10
8.350000
 20
16.790000
  0
VERTEX
  8
gg1
 10
8.350000
 20
16.830000
  0
SEQEND
  8
gg1
  0
POLYLINE
  8
gg1
 62
1
 40
0.000000
 41
0.000000
 66
  1
  0
VERTEX
  8
gg1
 10
8.330000
 20
16.710000
  0
VERTEX
  8
gg1
 10
8.370000
 20
16.710000
  0
SEQEND
  8
gg1
  0
POLYLINE
  8
gg1
 62
1
 40
0.000000
 41
0.000000
 66
  1
  0
VERTEX
  8
gg1
 10
8.350000
 20
16.690000
  0
VERTEX
  8
gg1
 10
8.350000
 20
16.730000
  0
SEQEND
  8
gg1
  0
POLYLINE
  8
gg1
 62
1
 40
0.000000
 41
0.000000
 66
  1
  0
VERTEX
  8
gg1
 10
8.330000
 20
16.610000
  0
VERTEX
  8
gg1
 10
8.370000
 20
16.610000
  0
SEQEND
  8
gg1
  0
POLYLINE
  8
gg1
 62
1
 40
0.000000
 41
0.000000
 66
  1
  0
VERTEX
  8
gg1
 10
8.350000
 20
16.590000
  0
VERTEX
  8
gg1
 10
8.350000
 20
16.630000
  0
SEQEND
  8
gg1
  0
POLYLINE
  8
gg1
 62
1
 40
0.000000
 41
0.000000
 66
  1
  0
VERTEX
  8
gg1
 10
8.330000
 20
16.110000
  0
VERTEX
  8
gg1
 10
8.370000
 20
16.110000
  0
SEQEND
  8
gg1
  0
POLYLINE
  8
gg1
 62
1
 40
0.000000
 41
0.000000
 66
  1
  0
VERTEX
  8
gg1
 10
8.350000
 20
16.090000
  0
VERTEX
  8
gg1
 10
8.350000
 20
16.130000
  0
SEQEND
  8
gg1
  0
POLYLINE
  8
gg1
 62
1
 40
0.000000
 41
0.000000
 66
  1
  0
VERTEX
  8
gg1
 10
8.330000
 20
16.010000
  0
VERTEX
  8
gg1
 10
8.370000
 20
16.010000
  0
SEQEND
  8
gg1
  0
POLYLINE
  8
gg1
 62
1
 40
0.000000
 41
0.000000
 66
  1
  0
VERTEX
  8
gg1
 10
8.350000
 20
15.990000
  0
VERTEX
  8
gg1
 10
8.350000
 20
16.030000
  0
SEQEND
  8
gg1
  0
POLYLINE
  8
gg1
 62
1
 40
0.000000
 41
0.000000
 66
  1
  0
VERTEX
  8
gg1
 10
8.330000
 20
15.910000
  0
VERTEX
  8
gg1
 10
8.370000
 20
15.910000
  0
SEQEND
  8
gg1
  0
POLYLINE
  8
gg1
 62
1
 40
0.000000
 41
0.000000
 66
  1
  0
VERTEX
  8
gg1
 10
8.350000
 20
15.890000
  0
VERTEX
  8
gg1
 10
8.350000
 20
15.930000
  0
SEQEND
  8
gg1
  0
POLYLINE
  8
gg1
 62
1
 40
0.000000
 41
0.000000
 66
  1
  0
VERTEX
  8
gg1
 10
6.630000
 20
16.010000
  0
VERTEX
  8
gg1
 10
6.670000
 20
16.010000
  0
SEQEND
  8
gg1
  0
POLYLINE
  8
gg1
 62
1
 40
0.000000
 41
0.000000
 66
  1
  0
VERTEX
  8
gg1
 10
6.650000
 20
15.990000
  0
VERTEX
  8
gg1
 10
6.650000
 20
16.030000
  0
SEQEND
  8
gg1
  0
POLYLINE
  8
gg1
 62
1
 40
0.000000
 41
0.000000
 66
  1
  0
VERTEX
  8
gg1
 10
6.630000
 20
16.110000
  0
VERTEX
  8
gg1
 10
6.670000
 20
16.110000
  0
SEQEND
  8
gg1
  0
POLYLINE
  8
gg1
 62
1
 40
0.000000
 41
0.000000
 66
  1
  0
VERTEX
  8
gg1
 10
6.650000
 20
16.090000
  0
VERTEX
  8
gg1
 10
6.650000
 20
16.130000
  0
SEQEND
  8
gg1
  0
POLYLINE
  8
gg1
 62
1
 40
0.000000
 41
0.000000
 66
  1
  0
VERTEX
  8
gg1
 10
6.630000
 20
16.610000
  0
VERTEX
  8
gg1
 10
6.670000
 20
16.610000
  0
SEQEND
  8
gg1
  0
POLYLINE
  8
gg1
 62
1
 40
0.000000
 41
0.000000
 66
  1
  0
VERTEX
  8
gg1
 10
6.650000
 20
16.590000
  0
VERTEX
  8
gg1
 10
6.650000
 20
16.630000
  0
SEQEND
  8
gg1
  0
POLYLINE
  8
gg1
 62
1
 40
0.000000
 41
0.000000
 66
  1
  0
VERTEX
  8
gg1
 10
6.630000
 20
16.710000
  0
VERTEX
  8
gg1
 10
6.670000
 20
16.710000
  0
SEQEND
  8
gg1
  0
POLYLINE
  8
gg1
 62
1
 40
0.000000
 41
0.000000
 66
  1
  0
VERTEX
  8
gg1
 10
6.650000
 20
16.690000
  0
VERTEX
  8
gg1
 10
6.650000
 20
16.730000
  0
SEQEND
  8
gg1
  0
POLYLINE
  8
gg1
 62
1
 40
0.000000
 41
0.000000
 66
  1
  0
VERTEX
  8
gg1
 10
6.630000
 20
16.810000
  0
VERTEX
  8
gg1
 10
6.670000
 20
16.810000
  0
SEQEND
  8
gg1
  0
POLYLINE
  8
gg1
 62
1
 40
0.000000
 41
0.000000
 66
  1
  0
VERTEX
  8
gg1
 10
6.650000
 20
16.790000
  0
VERTEX
  8
gg1
 10
6.650000
 20
16.830000
  0
SEQEND
  8
gg1
  0
POLYLINE
  8
gg1
 62
1
 40
0.000000
 41
0.000000
 66
  1
  0
VERTEX
  8
gg1
 10
6.630000
 20
16.910000
  0
VERTEX
  8
gg1
 10
6.670000
 20
16.910000
  0
SEQEND
  8
gg1
  0
POLYLINE
  8
gg1
 62
1
 40
0.000000
 41
0.000000
 66
  1
  0
VERTEX
  8
gg1
 10
6.650000
 20
16.890000
  0
VERTEX
  8
gg1
 10
6.650000
 20
16.930000
  0
SEQEND
  8
gg1
  0
POLYLINE
  8
gg1
 62
1
 40
0.000000
 41
0.000000
 66
  1
  0
VERTEX
  8
gg1
 10
6.630000
 20
17.010000
  0
VERTEX
  8
gg1
 10
6.670000
 20
17.010000
  0
SEQEND
  8
gg1
  0
POLYLINE
  8
gg1
 62
1
 40
0.000000
 41
0.000000
 66
  1
  0
VERTEX
  8
gg1
 10
6.650000
 20
16.990000
  0
VERTEX
  8
gg1
 10
6.650000
 20
17.030000
  0
SEQEND
  8
gg1
  0
POLYLINE
  8
gg1
 62
1
 40
0.000000
 41
0.000000
 66
  1
  0
VERTEX
  8
gg1
 10
6.630000
 20
16.510000
  0
VERTEX
  8
gg1
 10
6.670000
 20
16.510000
  0
SEQEND
  8
gg1
  0
POLYLINE
  8
gg1
 62
1
 40
0.000000
 41
0.000000
 66
  1
  0
VERTEX
  8
gg1
 10
6.650000
 20
16.490000
  0
VERTEX
  8
gg1
 10
6.650000
 20
16.530000
  0
SEQEND
  8
gg1
  0
POLYLINE
  8
gg1
 62
1
 40
0.000000
 41
0.000000
 66
  1
  0
VERTEX
  8
gg1
 10
6.630000
 20
16.410000
  0
VERTEX
  8
gg1
 10
6.670000
 20
16.410000
  0
SEQEND
  8
gg1
  0
POLYLINE
  8
gg1
 62
1
 40
0.000000
 41
0.000000
 66
  1
  0
VERTEX
  8
gg1
 10
6.650000
 20
16.390000
  0
VERTEX
  8
gg1
 10
6.650000
 20
16.430000
  0
SEQEND
  8
gg1
  0
POLYLINE
  8
gg1
 62
1
 40
0.000000
 41
0.000000
 66
  1
  0
VERTEX
  8
gg1
 10
6.630000
 20
16.310000
  0
VERTEX
  8
gg1
 10
6.670000
 20
16.310000
  0
SEQEND
  8
gg1
  0
POLYLINE
  8
gg1
 62
1
 40
0.000000
 41
0.000000
 66
  1
  0
VERTEX
  8
gg1
 10
6.650000
 20
16.290000
  0
VERTEX
  8
gg1
 10
6.650000
 20
16.330000
  0
SEQEND
  8
gg1
  0
POLYLINE
  8
gg1
 62
1
 40
0.000000
 41
0.000000
 66
  1
  0
VERTEX
  8
gg1
 10
6.630000
 20
16.210000
  0
VERTEX
  8
gg1
 10
6.670000
 20
16.210000
  0
SEQEND
  8
gg1
  0
POLYLINE
  8
gg1
 62
1
 40
0.000000
 41
0.000000
 66
  1
  0
VERTEX
  8
gg1
 10
6.650000
 20
16.190000
  0
VERTEX
  8
gg1
 10
6.650000
 20
16.230000
  0
SEQEND
  8
gg1
  0
POLYLINE
  8
gg1
 62
1
 40
0.000000
 41
0.000000
 66
  1
  0
VERTEX
  8
gg1
 10
6.530000
 20
16.010000
  0
VERTEX
  8
gg1
 10
6.570000
 20
16.010000
  0
SEQEND
  8
gg1
  0
POLYLINE
  8
gg1
 62
1
 40
0.000000
 41
0.000000
 66
  1
  0
VERTEX
  8
gg1
 10
6.550000
 20
15.990000
  0
VERTEX
  8
gg1
 10
6.550000
 20
16.030000
  0
SEQEND
  8
gg1
  0
POLYLINE
  8
gg1
 62
1
 40
0.000000
 41
0.000000
 66
  1
  0
VERTEX
  8
gg1
 10
6.530000
 20
16.110000
  0
VERTEX
  8
gg1
 10
6.570000
 20
16.110000
  0
SEQEND
  8
gg1
  0
POLYLINE
  8
gg1
 62
1
 40
0.000000
 41
0.000000
 66
  1
  0
VERTEX
  8
gg1
 10
6.550000
 20
16.090000
  0
VERTEX
  8
gg1
 10
6.550000
 20
16.130000
  0
SEQEND
  8
gg1
  0
POLYLINE
  8
gg1
 62
1
 40
0.000000
 41
0.000000
 66
  1
  0
VERTEX
  8
gg1
 10
6.530000
 20
16.610000
  0
VERTEX
  8
gg1
 10
6.570000
 20
16.610000
  0
SEQEND
  8
gg1
  0
POLYLINE
  8
gg1
 62
1
 40
0.000000
 41
0.000000
 66
  1
  0
VERTEX
  8
gg1
 10
6.550000
 20
16.590000
  0
VERTEX
  8
gg1
 10
6.550000
 20
16.630000
  0
SEQEND
  8
gg1
  0
POLYLINE
  8
gg1
 62
1
 40
0.000000
 41
0.000000
 66
  1
  0
VERTEX
  8
gg1
 10
6.530000
 20
16.710000
  0
VERTEX
  8
gg1
 10
6.570000
 20
16.710000
  0
SEQEND
  8
gg1
  0
POLYLINE
  8
gg1
 62
1
 40
0.000000
 41
0.000000
 66
  1
  0
VERTEX
  8
gg1
 10
6.550000
 20
16.690000
  0
VERTEX
  8
gg1
 10
6.550000
 20
16.730000
  0
SEQEND
  8
gg1
  0
POLYLINE
  8
gg1
 62
1
 40
0.000000
 41
0.000000
 66
  1
  0
VERTEX
  8
gg1
 10
6.530000
 20
16.810000
  0
VERTEX
  8
gg1
 10
6.570000
 20
16.810000
  0
SEQEND
  8
gg1
  0
POLYLINE
  8
gg1
 62
1
 40
0.000000
 41
0.000000
 66
  1
  0
VERTEX
  8
gg1
 10
6.550000
 20
16.790000
  0
VERTEX
  8
gg1
 10
6.550000
 20
16.830000
  0
SEQEND
  8
gg1
  0
POLYLINE
  8
gg1
 62
1
 40
0.000000
 41
0.000000
 66
  1
  0
VERTEX
  8
gg1
 10
6.530000
 20
16.910000
  0
VERTEX
  8
gg1
 10
6.570000
 20
16.910000
  0
SEQEND
  8
gg1
  0
POLYLINE
  8
gg1
 62
1
 40
0.000000
 41
0.000000
 66
  1
  0
VERTEX
  8
gg1
 10
6.550000
 20
16.890000
  0
VERTEX
  8
gg1
 10
6.550000
 20
16.930000
  0
SEQEND
  8
gg1
  0
POLYLINE
  8
gg1
 62
1
 40
0.000000
 41
0.000000
 66
  1
  0
VERTEX
  8
gg1
 10
6.530000
 20
17.010000
  0
VERTEX
  8
gg1
 10
6.570000
 20
17.010000
  0
SEQEND
  8
gg1
  0
POLYLINE
  8
gg1
 62
1
 40
0.000000
 41
0.000000
 66
  1
  0
VERTEX
  8
gg1
 10
6.550000
 20
16.990000
  0
VERTEX
  8
gg1
 10
6.550000
 20
17.030000
  0
SEQEND
  8
gg1
  0
POLYLINE
  8
gg1
 62
1
 40
0.000000
 41
0.000000
 66
  1
  0
VERTEX
  8
gg1
 10
6.530000
 20
16.510000
  0
VERTEX
  8
gg1
 10
6.570000
 20
16.510000
  0
SEQEND
  8
gg1
  0
POLYLINE
  8
gg1
 62
1
 40
0.000000
 41
0.000000
 66
  1
  0
VERTEX
  8
gg1
 10
6.550000
 20
16.490000
  0
VERTEX
  8
gg1
 10
6.550000
 20
16.530000
  0
SEQEND
  8
gg1
  0
POLYLINE
  8
gg1
 62
1
 40
0.000000
 41
0.000000
 66
  1
  0
VERTEX
  8
gg1
 10
6.530000
 20
16.410000
  0
VERTEX
  8
gg1
 10
6.570000
 20
16.410000
  0
SEQEND
  8
gg1
  0
POLYLINE
  8
gg1
 62
1
 40
0.000000
 41
0.000000
 66
  1
  0
VERTEX
  8
gg1
 10
6.550000
 20
16.390000
  0
VERTEX
  8
gg1
 10
6.550000
 20
16.430000
  0
SEQEND
  8
gg1
  0
POLYLINE
  8
gg1
 62
1
 40
0.000000
 41
0.000000
 66
  1
  0
VERTEX
  8
gg1
 10
6.530000
 20
16.310000
  0
VERTEX
  8
gg1
 10
6.570000
 20
16.310000
  0
SEQEND
  8
gg1
  0
POLYLINE
  8
gg1
 62
1
 40
0.000000
 41
0.000000
 66
  1
  0
VERTEX
  8
gg1
 10
6.550000
 20
16.290000
  0
VERTEX
  8
gg1
 10
6.550000
 20
16.330000
  0
SEQEND
  8
gg1
  0
POLYLINE
  8
gg1
 62
1
 40
0.000000
 41
0.000000
 66
  1
  0
VERTEX
  8
gg1
 10
6.530000
 20
16.210000
  0
VERTEX
  8
gg1
 10
6.570000
 20
16.210000
  0
SEQEND
  8
gg1
  0
POLYLINE
  8
gg1
 62
1
 40
0.000000
 41
0.000000
 66
  1
  0
VERTEX
  8
gg1
 10
6.550000
 20
16.190000
  0
VERTEX
  8
gg1
 10
6.550000
 20
16.230000
  0
SEQEND
  8
gg1
  0
POLYLINE
  8
gg1
 62
1
 40
0.000000
 41
0.000000
 66
  1
  0
VERTEX
  8
gg1
 10
6.545000
 20
15.235000
  0
VERTEX
  8
gg1
 10
6.585000
 20
15.235000
  0
SEQEND
  8
gg1
  0
POLYLINE
  8
gg1
 62
1
 40
0.000000
 41
0.000000
 66
  1
  0
VERTEX
  8
gg1
 10
6.565000
 20
15.215000
  0
VERTEX
  8
gg1
 10
6.565000
 20
15.255000
  0
SEQEND
  8
gg1
  0
POLYLINE
  8
gg1
 62
1
 40
0.000000
 41
0.000000
 66
  1
  0
VERTEX
  8
gg1
 10
6.645000
 20
15.235000
  0
VERTEX
  8
gg1
 10
6.685000
 20
15.235000
  0
SEQEND
  8
gg1
  0
POLYLINE
  8
gg1
 62
1
 40
0.000000
 41
0.000000
 66
  1
  0
VERTEX
  8
gg1
 10
6.665000
 20
15.215000
  0
VERTEX
  8
gg1
 10
6.665000
 20
15.255000
  0
SEQEND
  8
gg1
  0
POLYLINE
  8
gg1
 62
1
 40
0.000000
 41
0.000000
 66
  1
  0
VERTEX
  8
gg1
 10
8.430000
 20
15.710000
  0
VERTEX
  8
gg1
 10
8.470000
 20
15.710000
  0
SEQEND
  8
gg1
  0
POLYLINE
  8
gg1
 62
1
 40
0.000000
 41
0.000000
 66
  1
  0
VERTEX
  8
gg1
 10
8.450000
 20
15.690000
  0
VERTEX
  8
gg1
 10
8.450000
 20
15.730000
  0
SEQEND
  8
gg1
  0
POLYLINE
  8
gg1
 62
1
 40
0.000000
 41
0.000000
 66
  1
  0
VERTEX
  8
gg1
 10
8.430000
 20
15.810000
  0
VERTEX
  8
gg1
 10
8.470000
 20
15.810000
  0
SEQEND
  8
gg1
  0
POLYLINE
  8
gg1
 62
1
 40
0.000000
 41
0.000000
 66
  1
  0
VERTEX
  8
gg1
 10
8.450000
 20
15.790000
  0
VERTEX
  8
gg1
 10
8.450000
 20
15.830000
  0
SEQEND
  8
gg1
  0
POLYLINE
  8
gg1
 62
1
 40
0.000000
 41
0.000000
 66
  1
  0
VERTEX
  8
gg1
 10
8.430000
 20
16.210000
  0
VERTEX
  8
gg1
 10
8.470000
 20
16.210000
  0
SEQEND
  8
gg1
  0
POLYLINE
  8
gg1
 62
1
 40
0.000000
 41
0.000000
 66
  1
  0
VERTEX
  8
gg1
 10
8.450000
 20
16.190000
  0
VERTEX
  8
gg1
 10
8.450000
 20
16.230000
  0
SEQEND
  8
gg1
  0
POLYLINE
  8
gg1
 62
1
 40
0.000000
 41
0.000000
 66
  1
  0
VERTEX
  8
gg1
 10
8.430000
 20
16.310000
  0
VERTEX
  8
gg1
 10
8.470000
 20
16.310000
  0
SEQEND
  8
gg1
  0
POLYLINE
  8
gg1
 62
1
 40
0.000000
 41
0.000000
 66
  1
  0
VERTEX
  8
gg1
 10
8.450000
 20
16.290000
  0
VERTEX
  8
gg1
 10
8.450000
 20
16.330000
  0
SEQEND
  8
gg1
  0
POLYLINE
  8
gg1
 62
1
 40
0.000000
 41
0.000000
 66
  1
  0
VERTEX
  8
gg1
 10
8.430000
 20
16.410000
  0
VERTEX
  8
gg1
 10
8.470000
 20
16.410000
  0
SEQEND
  8
gg1
  0
POLYLINE
  8
gg1
 62
1
 40
0.000000
 41
0.000000
 66
  1
  0
VERTEX
  8
gg1
 10
8.450000
 20
16.390000
  0
VERTEX
  8
gg1
 10
8.450000
 20
16.430000
  0
SEQEND
  8
gg1
  0
POLYLINE
  8
gg1
 62
1
 40
0.000000
 41
0.000000
 66
  1
  0
VERTEX
  8
gg1
 10
8.430000
 20
16.510000
  0
VERTEX
  8
gg1
 10
8.470000
 20
16.510000
  0
SEQEND
  8
gg1
  0
POLYLINE
  8
gg1
 62
1
 40
0.000000
 41
0.000000
 66
  1
  0
VERTEX
  8
gg1
 10
8.450000
 20
16.490000
  0
VERTEX
  8
gg1
 10
8.450000
 20
16.530000
  0
SEQEND
  8
gg1
  0
POLYLINE
  8
gg1
 62
1
 40
0.000000
 41
0.000000
 66
  1
  0
VERTEX
  8
gg1
 10
8.430000
 20
17.010000
  0
VERTEX
  8
gg1
 10
8.470000
 20
17.010000
  0
SEQEND
  8
gg1
  0
POLYLINE
  8
gg1
 62
1
 40
0.000000
 41
0.000000
 66
  1
  0
VERTEX
  8
gg1
 10
8.450000
 20
16.990000
  0
VERTEX
  8
gg1
 10
8.450000
 20
17.030000
  0
SEQEND
  8
gg1
  0
POLYLINE
  8
gg1
 62
1
 40
0.000000
 41
0.000000
 66
  1
  0
VERTEX
  8
gg1
 10
8.430000
 20
16.910000
  0
VERTEX
  8
gg1
 10
8.470000
 20
16.910000
  0
SEQEND
  8
gg1
  0
POLYLINE
  8
gg1
 62
1
 40
0.000000
 41
0.000000
 66
  1
  0
VERTEX
  8
gg1
 10
8.450000
 20
16.890000
  0
VERTEX
  8
gg1
 10
8.450000
 20
16.930000
  0
SEQEND
  8
gg1
  0
POLYLINE
  8
gg1
 62
1
 40
0.000000
 41
0.000000
 66
  1
  0
VERTEX
  8
gg1
 10
8.430000
 20
16.810000
  0
VERTEX
  8
gg1
 10
8.470000
 20
16.810000
  0
SEQEND
  8
gg1
  0
POLYLINE
  8
gg1
 62
1
 40
0.000000
 41
0.000000
 66
  1
  0
VERTEX
  8
gg1
 10
8.450000
 20
16.790000
  0
VERTEX
  8
gg1
 10
8.450000
 20
16.830000
  0
SEQEND
  8
gg1
  0
POLYLINE
  8
gg1
 62
1
 40
0.000000
 41
0.000000
 66
  1
  0
VERTEX
  8
gg1
 10
8.430000
 20
16.710000
  0
VERTEX
  8
gg1
 10
8.470000
 20
16.710000
  0
SEQEND
  8
gg1
  0
POLYLINE
  8
gg1
 62
1
 40
0.000000
 41
0.000000
 66
  1
  0
VERTEX
  8
gg1
 10
8.450000
 20
16.690000
  0
VERTEX
  8
gg1
 10
8.450000
 20
16.730000
  0
SEQEND
  8
gg1
  0
POLYLINE
  8
gg1
 62
1
 40
0.000000
 41
0.000000
 66
  1
  0
VERTEX
  8
gg1
 10
8.430000
 20
16.610000
  0
VERTEX
  8
gg1
 10
8.470000
 20
16.610000
  0
SEQEND
  8
gg1
  0
POLYLINE
  8
gg1
 62
1
 40
0.000000
 41
0.000000
 66
  1
  0
VERTEX
  8
gg1
 10
8.450000
 20
16.590000
  0
VERTEX
  8
gg1
 10
8.450000
 20
16.630000
  0
SEQEND
  8
gg1
  0
POLYLINE
  8
gg1
 62
1
 40
0.000000
 41
0.000000
 66
  1
  0
VERTEX
  8
gg1
 10
8.430000
 20
16.110000
  0
VERTEX
  8
gg1
 10
8.470000
 20
16.110000
  0
SEQEND
  8
gg1
  0
POLYLINE
  8
gg1
 62
1
 40
0.000000
 41
0.000000
 66
  1
  0
VERTEX
  8
gg1
 10
8.450000
 20
16.090000
  0
VERTEX
  8
gg1
 10
8.450000
 20
16.130000
  0
SEQEND
  8
gg1
  0
POLYLINE
  8
gg1
 62
1
 40
0.000000
 41
0.000000
 66
  1
  0
VERTEX
  8
gg1
 10
8.430000
 20
16.010000
  0
VERTEX
  8
gg1
 10
8.470000
 20
16.010000
  0
SEQEND
  8
gg1
  0
POLYLINE
  8
gg1
 62
1
 40
0.000000
 41
0.000000
 66
  1
  0
VERTEX
  8
gg1
 10
8.450000
 20
15.990000
  0
VERTEX
  8
gg1
 10
8.450000
 20
16.030000
  0
SEQEND
  8
gg1
  0
POLYLINE
  8
gg1
 62
1
 40
0.000000
 41
0.000000
 66
  1
  0
VERTEX
  8
gg1
 10
8.430000
 20
15.910000
  0
VERTEX
  8
gg1
 10
8.470000
 20
15.910000
  0
SEQEND
  8
gg1
  0
POLYLINE
  8
gg1
 62
1
 40
0.000000
 41
0.000000
 66
  1
  0
VERTEX
  8
gg1
 10
8.450000
 20
15.890000
  0
VERTEX
  8
gg1
 10
8.450000
 20
15.930000
  0
SEQEND
  8
gg1
  0
POLYLINE
  8
gg1
 62
1
 40
0.000000
 41
0.000000
 66
  1
  0
VERTEX
  8
gg1
 10
8.047600
 20
16.003900
  0
VERTEX
  8
gg1
 10
8.133600
 20
16.003900
  0
SEQEND
  8
gg1
  0
POLYLINE
  8
gg1
 62
1
 40
0.000000
 41
0.000000
 66
  1
  0
VERTEX
  8
gg1
 10
8.090600
 20
15.960900
  0
VERTEX
  8
gg1
 10
8.090600
 20
16.046900
  0
SEQEND
  8
gg1
  0
POLYLINE
  8
gg1
 62
1
 40
0.000000
 41
0.000000
 66
  1
  0
VERTEX
  8
gg1
 10
6.570000
 20
15.515000
  0
VERTEX
  8
gg1
 10
6.590000
 20
15.515000
  0
SEQEND
  8
gg1
  0
POLYLINE
  8
gg1
 62
1
 40
0.000000
 41
0.000000
 66
  1
  0
VERTEX
  8
gg1
 10
6.580000
 20
15.505000
  0
VERTEX
  8
gg1
 10
6.580000
 20
15.525000
  0
SEQEND
  8
gg1
  0
POLYLINE
  8
gg1
 62
1
 40
0.000000
 41
0.000000
 66
  1
  0
VERTEX
  8
gg1
 10
6.350000
 20
15.250000
  0
VERTEX
  8
gg1
 10
6.370000
 20
15.250000
  0
SEQEND
  8
gg1
  0
POLYLINE
  8
gg1
 62
1
 40
0.000000
 41
0.000000
 66
  1
  0
VERTEX
  8
gg1
 10
6.360000
 20
15.240000
  0
VERTEX
  8
gg1
 10
6.360000
 20
15.260000
  0
SEQEND
  8
gg1
  0
POLYLINE
  8
gg1
 62
1
 40
0.000000
 41
0.000000
 66
  1
  0
VERTEX
  8
gg1
 10
6.630000
 20
17.310000
  0
VERTEX
  8
gg1
 10
6.670000
 20
17.310000
  0
SEQEND
  8
gg1
  0
POLYLINE
  8
gg1
 62
1
 40
0.000000
 41
0.000000
 66
  1
  0
VERTEX
  8
gg1
 10
6.650000
 20
17.290000
  0
VERTEX
  8
gg1
 10
6.650000
 20
17.330000
  0
SEQEND
  8
gg1
  0
POLYLINE
  8
gg1
 62
1
 40
0.000000
 41
0.000000
 66
  1
  0
VERTEX
  8
gg1
 10
6.630000
 20
17.210000
  0
VERTEX
  8
gg1
 10
6.670000
 20
17.210000
  0
SEQEND
  8
gg1
  0
POLYLINE
  8
gg1
 62
1
 40
0.000000
 41
0.000000
 66
  1
  0
VERTEX
  8
gg1
 10
6.650000
 20
17.190000
  0
VERTEX
  8
gg1
 10
6.650000
 20
17.230000
  0
SEQEND
  8
gg1
  0
POLYLINE
  8
gg1
 62
1
 40
0.000000
 41
0.000000
 66
  1
  0
VERTEX
  8
gg1
 10
7.655000
 20
15.395000
  0
VERTEX
  8
gg1
 10
7.675000
 20
15.395000
  0
SEQEND
  8
gg1
  0
POLYLINE
  8
gg1
 62
1
 40
0.000000
 41
0.000000
 66
  1
  0
VERTEX
  8
gg1
 10
7.665000
 20
15.385000
  0
VERTEX
  8
gg1
 10
7.665000
 20
15.405000
  0
SEQEND
  8
gg1
  0
POLYLINE
  8
gg1
 62
1
 40
0.000000
 41
0.000000
 66
  1
  0
VERTEX
  8
gg1
 10
8.365800
 20
15.137800
  0
VERTEX
  8
gg1
 10
8.405800
 20
15.137800
  0
SEQEND
  8
gg1
  0
POLYLINE
  8
gg1
 62
1
 40
0.000000
 41
0.000000
 66
  1
  0
VERTEX
  8
gg1
 10
8.385800
 20
15.117800
  0
VERTEX
  8
gg1
 10
8.385800
 20
15.157800
  0
SEQEND
  8
gg1
  0
POLYLINE
  8
gg1
 62
1
 40
0.000000
 41
0.000000
 66
  1
  0
VERTEX
  8
gg1
 10
7.845000
 20
17.032500
  0
VERTEX
  8
gg1
 10
7.865000
 20
17.032500
  0
SEQEND
  8
gg1
  0
POLYLINE
  8
gg1
 62
1
 40
0.000000
 41
0.000000
 66
  1
  0
VERTEX
  8
gg1
 10
7.855000
 20
17.022500
  0
VERTEX
  8
gg1
 10
7.855000
 20
17.042500
  0
SEQEND
  8
gg1
  0
POLYLINE
  8
gg1
 62
1
 40
0.000000
 41
0.000000
 66
  1
  0
VERTEX
  8
gg1
 10
7.048200
 20
15.125000
  0
VERTEX
  8
gg1
 10
7.083700
 20
15.125000
  0
SEQEND
  8
gg1
  0
POLYLINE
  8
gg1
 62
1
 40
0.000000
 41
0.000000
 66
  1
  0
VERTEX
  8
gg1
 10
7.065900
 20
15.107300
  0
VERTEX
  8
gg1
 10
7.065900
 20
15.142700
  0
SEQEND
  8
gg1
  0
POLYLINE
  8
gg1
 62
1
 40
0.000000
 41
0.000000
 66
  1
  0
VERTEX
  8
gg1
 10
7.166300
 20
15.125000
  0
VERTEX
  8
gg1
 10
7.201800
 20
15.125000
  0
SEQEND
  8
gg1
  0
POLYLINE
  8
gg1
 62
1
 40
0.000000
 41
0.000000
 66
  1
  0
VERTEX
  8
gg1
 10
7.184100
 20
15.107300
  0
VERTEX
  8
gg1
 10
7.184100
 20
15.142700
  0
SEQEND
  8
gg1
  0
POLYLINE
  8
gg1
 62
1
 40
0.000000
 41
0.000000
 66
  1
  0
VERTEX
  8
gg1
 10
9.010000
 20
16.765000
  0
VERTEX
  8
gg1
 10
9.050000
 20
16.765000
  0
SEQEND
  8
gg1
  0
POLYLINE
  8
gg1
 62
1
 40
0.000000
 41
0.000000
 66
  1
  0
VERTEX
  8
gg1
 10
9.030000
 20
16.745000
  0
VERTEX
  8
gg1
 10
9.030000
 20
16.785000
  0
SEQEND
  8
gg1
  0
POLYLINE
  8
gg1
 62
1
 40
0.000000
 41
0.000000
 66
  1
  0
VERTEX
  8
gg1
 10
9.010000
 20
16.665000
  0
VERTEX
  8
gg1
 10
9.050000
 20
16.665000
  0
SEQEND
  8
gg1
  0
POLYLINE
  8
gg1
 62
1
 40
0.000000
 41
0.000000
 66
  1
  0
VERTEX
  8
gg1
 10
9.030000
 20
16.645000
  0
VERTEX
  8
gg1
 10
9.030000
 20
16.685000
  0
SEQEND
  8
gg1
  0
POLYLINE
  8
gg1
 62
1
 40
0.000000
 41
0.000000
 66
  1
  0
VERTEX
  8
gg1
 10
9.110000
 20
16.765000
  0
VERTEX
  8
gg1
 10
9.150000
 20
16.765000
  0
SEQEND
  8
gg1
  0
POLYLINE
  8
gg1
 62
1
 40
0.000000
 41
0.000000
 66
  1
  0
VERTEX
  8
gg1
 10
9.130000
 20
16.745000
  0
VERTEX
  8
gg1
 10
9.130000
 20
16.785000
  0
SEQEND
  8
gg1
  0
POLYLINE
  8
gg1
 62
1
 40
0.000000
 41
0.000000
 66
  1
  0
VERTEX
  8
gg1
 10
9.110000
 20
16.665000
  0
VERTEX
  8
gg1
 10
9.150000
 20
16.665000
  0
SEQEND
  8
gg1
  0
POLYLINE
  8
gg1
 62
1
 40
0.000000
 41
0.000000
 66
  1
  0
VERTEX
  8
gg1
 10
9.130000
 20
16.645000
  0
VERTEX
  8
gg1
 10
9.130000
 20
16.685000
  0
SEQEND
  8
gg1
  0
POLYLINE
  8
gg1
 62
1
 40
0.000000
 41
0.000000
 66
  1
  0
VERTEX
  8
gg1
 10
6.100000
 20
16.515000
  0
VERTEX
  8
gg1
 10
6.140000
 20
16.515000
  0
SEQEND
  8
gg1
  0
POLYLINE
  8
gg1
 62
1
 40
0.000000
 41
0.000000
 66
  1
  0
VERTEX
  8
gg1
 10
6.120000
 20
16.495000
  0
VERTEX
  8
gg1
 10
6.120000
 20
16.535000
  0
SEQEND
  8
gg1
  0
POLYLINE
  8
gg1
 62
1
 40
0.000000
 41
0.000000
 66
  1
  0
VERTEX
  8
gg1
 10
8.860000
 20
16.515000
  0
VERTEX
  8
gg1
 10
8.900000
 20
16.515000
  0
SEQEND
  8
gg1
  0
POLYLINE
  8
gg1
 62
1
 40
0.000000
 41
0.000000
 66
  1
  0
VERTEX
  8
gg1
 10
8.880000
 20
16.495000
  0
VERTEX
  8
gg1
 10
8.880000
 20
16.535000
  0
SEQEND
  8
gg1
  0
POLYLINE
  8
gg1
 62
1
 40
0.000000
 41
0.000000
 66
  1
  0
VERTEX
  8
gg1
 10
8.860000
 20
16.815000
  0
VERTEX
  8
gg1
 10
8.900000
 20
16.815000
  0
SEQEND
  8
gg1
  0
POLYLINE
  8
gg1
 62
1
 40
0.000000
 41
0.000000
 66
  1
  0
VERTEX
  8
gg1
 10
8.880000
 20
16.795000
  0
VERTEX
  8
gg1
 10
8.880000
 20
16.835000
  0
SEQEND
  8
gg1
  0
POLYLINE
  8
gg1
 62
1
 40
0.000000
 41
0.000000
 66
  1
  0
VERTEX
  8
gg1
 10
8.860000
 20
16.715000
  0
VERTEX
  8
gg1
 10
8.900000
 20
16.715000
  0
SEQEND
  8
gg1
  0
POLYLINE
  8
gg1
 62
1
 40
0.000000
 41
0.000000
 66
  1
  0
VERTEX
  8
gg1
 10
8.880000
 20
16.695000
  0
VERTEX
  8
gg1
 10
8.880000
 20
16.735000
  0
SEQEND
  8
gg1
  0
POLYLINE
  8
gg1
 62
1
 40
0.000000
 41
0.000000
 66
  1
  0
VERTEX
  8
gg1
 10
8.860000
 20
16.615000
  0
VERTEX
  8
gg1
 10
8.900000
 20
16.615000
  0
SEQEND
  8
gg1
  0
POLYLINE
  8
gg1
 62
1
 40
0.000000
 41
0.000000
 66
  1
  0
VERTEX
  8
gg1
 10
8.880000
 20
16.595000
  0
VERTEX
  8
gg1
 10
8.880000
 20
16.635000
  0
SEQEND
  8
gg1
  0
POLYLINE
  8
gg1
 62
1
 40
0.000000
 41
0.000000
 66
  1
  0
VERTEX
  8
gg1
 10
6.100000
 20
16.615000
  0
VERTEX
  8
gg1
 10
6.140000
 20
16.615000
  0
SEQEND
  8
gg1
  0
POLYLINE
  8
gg1
 62
1
 40
0.000000
 41
0.000000
 66
  1
  0
VERTEX
  8
gg1
 10
6.120000
 20
16.595000
  0
VERTEX
  8
gg1
 10
6.120000
 20
16.635000
  0
SEQEND
  8
gg1
  0
POLYLINE
  8
gg1
 62
1
 40
0.000000
 41
0.000000
 66
  1
  0
VERTEX
  8
gg1
 10
6.100000
 20
16.715000
  0
VERTEX
  8
gg1
 10
6.140000
 20
16.715000
  0
SEQEND
  8
gg1
  0
POLYLINE
  8
gg1
 62
1
 40
0.000000
 41
0.000000
 66
  1
  0
VERTEX
  8
gg1
 10
6.120000
 20
16.695000
  0
VERTEX
  8
gg1
 10
6.120000
 20
16.735000
  0
SEQEND
  8
gg1
  0
POLYLINE
  8
gg1
 62
1
 40
0.000000
 41
0.000000
 66
  1
  0
VERTEX
  8
gg1
 10
6.100000
 20
16.815000
  0
VERTEX
  8
gg1
 10
6.140000
 20
16.815000
  0
SEQEND
  8
gg1
  0
POLYLINE
  8
gg1
 62
1
 40
0.000000
 41
0.000000
 66
  1
  0
VERTEX
  8
gg1
 10
6.120000
 20
16.795000
  0
VERTEX
  8
gg1
 10
6.120000
 20
16.835000
  0
SEQEND
  8
gg1
  0
POLYLINE
  8
gg1
 62
1
 40
0.000000
 41
0.000000
 66
  1
  0
VERTEX
  8
gg1
 10
8.539700
 20
16.948800
  0
VERTEX
  8
gg1
 10
8.625700
 20
16.948800
  0
SEQEND
  8
gg1
  0
POLYLINE
  8
gg1
 62
1
 40
0.000000
 41
0.000000
 66
  1
  0
VERTEX
  8
gg1
 10
8.582700
 20
16.905800
  0
VERTEX
  8
gg1
 10
8.582700
 20
16.991800
  0
SEQEND
  8
gg1
  0
POLYLINE
  8
gg1
 62
1
 40
0.000000
 41
0.000000
 66
  1
  0
VERTEX
  8
gg1
 10
6.374300
 20
16.948800
  0
VERTEX
  8
gg1
 10
6.460300
 20
16.948800
  0
SEQEND
  8
gg1
  0
POLYLINE
  8
gg1
 62
1
 40
0.000000
 41
0.000000
 66
  1
  0
VERTEX
  8
gg1
 10
6.417300
 20
16.905800
  0
VERTEX
  8
gg1
 10
6.417300
 20
16.991800
  0
SEQEND
  8
gg1
  0
POLYLINE
  8
gg1
 62
1
 40
0.000000
 41
0.000000
 66
  1
  0
VERTEX
  8
gg1
 10
6.374300
 20
16.476400
  0
VERTEX
  8
gg1
 10
6.460300
 20
16.476400
  0
SEQEND
  8
gg1
  0
POLYLINE
  8
gg1
 62
1
 40
0.000000
 41
0.000000
 66
  1
  0
VERTEX
  8
gg1
 10
6.417300
 20
16.433400
  0
VERTEX
  8
gg1
 10
6.417300
 20
16.519400
  0
SEQEND
  8
gg1
  0
POLYLINE
  8
gg1
 62
1
 40
0.000000
 41
0.000000
 66
  1
  0
VERTEX
  8
gg1
 10
8.539700
 20
16.476400
  0
VERTEX
  8
gg1
 10
8.625700
 20
16.476400
  0
SEQEND
  8
gg1
  0
POLYLINE
  8
gg1
 62
1
 40
0.000000
 41
0.000000
 66
  1
  0
VERTEX
  8
gg1
 10
8.582700
 20
16.433400
  0
VERTEX
  8
gg1
 10
8.582700
 20
16.519400
  0
SEQEND
  8
gg1
  0
POLYLINE
  8
gg1
 62
1
 40
0.000000
 41
0.000000
 66
  1
  0
VERTEX
  8
gg1
 10
8.539700
 20
16.003900
  0
VERTEX
  8
gg1
 10
8.625700
 20
16.003900
  0
SEQEND
  8
gg1
  0
POLYLINE
  8
gg1
 62
1
 40
0.000000
 41
0.000000
 66
  1
  0
VERTEX
  8
gg1
 10
8.582700
 20
15.960900
  0
VERTEX
  8
gg1
 10
8.582700
 20
16.046900
  0
SEQEND
  8
gg1
  0
POLYLINE
  8
gg1
 62
1
 40
0.000000
 41
0.000000
 66
  1
  0
VERTEX
  8
gg1
 10
8.539700
 20
15.531500
  0
VERTEX
  8
gg1
 10
8.625700
 20
15.531500
  0
SEQEND
  8
gg1
  0
POLYLINE
  8
gg1
 62
1
 40
0.000000
 41
0.000000
 66
  1
  0
VERTEX
  8
gg1
 10
8.582700
 20
15.488500
  0
VERTEX
  8
gg1
 10
8.582700
 20
15.574500
  0
SEQEND
  8
gg1
  0
POLYLINE
  8
gg1
 62
1
 40
0.000000
 41
0.000000
 66
  1
  0
VERTEX
  8
gg1
 10
6.374300
 20
15.531500
  0
VERTEX
  8
gg1
 10
6.460300
 20
15.531500
  0
SEQEND
  8
gg1
  0
POLYLINE
  8
gg1
 62
1
 40
0.000000
 41
0.000000
 66
  1
  0
VERTEX
  8
gg1
 10
6.417300
 20
15.488500
  0
VERTEX
  8
gg1
 10
6.417300
 20
15.574500
  0
SEQEND
  8
gg1
  0
POLYLINE
  8
gg1
 62
1
 40
0.000000
 41
0.000000
 66
  1
  0
VERTEX
  8
gg1
 10
6.866400
 20
16.003900
  0
VERTEX
  8
gg1
 10
6.952400
 20
16.003900
  0
SEQEND
  8
gg1
  0
POLYLINE
  8
gg1
 62
1
 40
0.000000
 41
0.000000
 66
  1
  0
VERTEX
  8
gg1
 10
6.909400
 20
15.960900
  0
VERTEX
  8
gg1
 10
6.909400
 20
16.046900
  0
SEQEND
  8
gg1
  0
POLYLINE
  8
gg1
 62
1
 40
0.000000
 41
0.000000
 66
  1
  0
VERTEX
  8
gg1
 10
6.594200
 20
15.137800
  0
VERTEX
  8
gg1
 10
6.634200
 20
15.137800
  0
SEQEND
  8
gg1
  0
POLYLINE
  8
gg1
 62
1
 40
0.000000
 41
0.000000
 66
  1
  0
VERTEX
  8
gg1
 10
6.614200
 20
15.117800
  0
VERTEX
  8
gg1
 10
6.614200
 20
15.157800
  0
SEQEND
  8
gg1
  0
POLYLINE
  8
gg1
 62
1
 40
0.000000
 41
0.000000
 66
  1
  0
VERTEX
  8
gg1
 10
8.441300
 20
18.011800
  0
VERTEX
  8
gg1
 10
8.527300
 20
18.011800
  0
SEQEND
  8
gg1
  0
POLYLINE
  8
gg1
 62
1
 40
0.000000
 41
0.000000
 66
  1
  0
VERTEX
  8
gg1
 10
8.484300
 20
17.968800
  0
VERTEX
  8
gg1
 10
8.484300
 20
18.054800
  0
SEQEND
  8
gg1
  0
POLYLINE
  8
gg1
 62
1
 40
0.000000
 41
0.000000
 66
  1
  0
VERTEX
  8
gg1
 10
7.980000
 20
17.805100
  0
VERTEX
  8
gg1
 10
8.020000
 20
17.805100
  0
SEQEND
  8
gg1
  0
POLYLINE
  8
gg1
 62
1
 40
0.000000
 41
0.000000
 66
  1
  0
VERTEX
  8
gg1
 10
8.000000
 20
17.785100
  0
VERTEX
  8
gg1
 10
8.000000
 20
17.825100
  0
SEQEND
  8
gg1
  0
POLYLINE
  8
gg1
 62
1
 40
0.000000
 41
0.000000
 66
  1
  0
VERTEX
  8
gg1
 10
7.980000
 20
17.509800
  0
VERTEX
  8
gg1
 10
8.020000
 20
17.509800
  0
SEQEND
  8
gg1
  0
POLYLINE
  8
gg1
 62
1
 40
0.000000
 41
0.000000
 66
  1
  0
VERTEX
  8
gg1
 10
8.000000
 20
17.489800
  0
VERTEX
  8
gg1
 10
8.000000
 20
17.529800
  0
SEQEND
  8
gg1
  0
POLYLINE
  8
gg1
 62
1
 40
0.000000
 41
0.000000
 66
  1
  0
VERTEX
  8
gg1
 10
6.472700
 20
18.011800
  0
VERTEX
  8
gg1
 10
6.558700
 20
18.011800
  0
SEQEND
  8
gg1
  0
POLYLINE
  8
gg1
 62
1
 40
0.000000
 41
0.000000
 66
  1
  0
VERTEX
  8
gg1
 10
6.515700
 20
17.968800
  0
VERTEX
  8
gg1
 10
6.515700
 20
18.054800
  0
SEQEND
  8
gg1
  0
POLYLINE
  8
gg1
 62
1
 40
0.000000
 41
0.000000
 66
  1
  0
VERTEX
  8
gg1
 10
6.980000
 20
17.805100
  0
VERTEX
  8
gg1
 10
7.020000
 20
17.805100
  0
SEQEND
  8
gg1
  0
POLYLINE
  8
gg1
 62
1
 40
0.000000
 41
0.000000
 66
  1
  0
VERTEX
  8
gg1
 10
7.000000
 20
17.785100
  0
VERTEX
  8
gg1
 10
7.000000
 20
17.825100
  0
SEQEND
  8
gg1
  0
POLYLINE
  8
gg1
 62
1
 40
0.000000
 41
0.000000
 66
  1
  0
VERTEX
  8
gg1
 10
6.980000
 20
17.509800
  0
VERTEX
  8
gg1
 10
7.020000
 20
17.509800
  0
SEQEND
  8
gg1
  0
POLYLINE
  8
gg1
 62
1
 40
0.000000
 41
0.000000
 66
  1
  0
VERTEX
  8
gg1
 10
7.000000
 20
17.489800
  0
VERTEX
  8
gg1
 10
7.000000
 20
17.529800
  0
SEQEND
  8
gg1
  0
POLYLINE
  8
gg1
 62
1
 40
0.000000
 41
0.000000
 66
  1
  0
VERTEX
  8
gg1
 10
6.230000
 20
18.110000
  0
VERTEX
  8
gg1
 10
6.270000
 20
18.110000
  0
SEQEND
  8
gg1
  0
POLYLINE
  8
gg1
 62
1
 40
0.000000
 41
0.000000
 66
  1
  0
VERTEX
  8
gg1
 10
6.250000
 20
18.090000
  0
VERTEX
  8
gg1
 10
6.250000
 20
18.130000
  0
SEQEND
  8
gg1
  0
POLYLINE
  8
gg1
 62
1
 40
0.000000
 41
0.000000
 66
  1
  0
VERTEX
  8
gg1
 10
6.230000
 20
18.210000
  0
VERTEX
  8
gg1
 10
6.270000
 20
18.210000
  0
SEQEND
  8
gg1
  0
POLYLINE
  8
gg1
 62
1
 40
0.000000
 41
0.000000
 66
  1
  0
VERTEX
  8
gg1
 10
6.250000
 20
18.190000
  0
VERTEX
  8
gg1
 10
6.250000
 20
18.230000
  0
SEQEND
  8
gg1
  0
POLYLINE
  8
gg1
 62
1
 40
0.000000
 41
0.000000
 66
  1
  0
VERTEX
  8
gg1
 10
8.730000
 20
18.110000
  0
VERTEX
  8
gg1
 10
8.770000
 20
18.110000
  0
SEQEND
  8
gg1
  0
POLYLINE
  8
gg1
 62
1
 40
0.000000
 41
0.000000
 66
  1
  0
VERTEX
  8
gg1
 10
8.750000
 20
18.090000
  0
VERTEX
  8
gg1
 10
8.750000
 20
18.130000
  0
SEQEND
  8
gg1
  0
POLYLINE
  8
gg1
 62
1
 40
0.000000
 41
0.000000
 66
  1
  0
VERTEX
  8
gg1
 10
8.730000
 20
18.210000
  0
VERTEX
  8
gg1
 10
8.770000
 20
18.210000
  0
SEQEND
  8
gg1
  0
POLYLINE
  8
gg1
 62
1
 40
0.000000
 41
0.000000
 66
  1
  0
VERTEX
  8
gg1
 10
8.750000
 20
18.190000
  0
VERTEX
  8
gg1
 10
8.750000
 20
18.230000
  0
SEQEND
  8
gg1
  0
POLYLINE
  8
gg1
 62
1
 40
0.000000
 41
0.000000
 66
  1
  0
VERTEX
  8
gg1
 10
5.950000
 20
16.765000
  0
VERTEX
  8
gg1
 10
5.990000
 20
16.765000
  0
SEQEND
  8
gg1
  0
POLYLINE
  8
gg1
 62
1
 40
0.000000
 41
0.000000
 66
  1
  0
VERTEX
  8
gg1
 10
5.970000
 20
16.745000
  0
VERTEX
  8
gg1
 10
5.970000
 20
16.785000
  0
SEQEND
  8
gg1
  0
POLYLINE
  8
gg1
 62
1
 40
0.000000
 41
0.000000
 66
  1
  0
VERTEX
  8
gg1
 10
5.950000
 20
16.665000
  0
VERTEX
  8
gg1
 10
5.990000
 20
16.665000
  0
SEQEND
  8
gg1
  0
POLYLINE
  8
gg1
 62
1
 40
0.000000
 41
0.000000
 66
  1
  0
VERTEX
  8
gg1
 10
5.970000
 20
16.645000
  0
VERTEX
  8
gg1
 10
5.970000
 20
16.685000
  0
SEQEND
  8
gg1
  0
POLYLINE
  8
gg1
 62
1
 40
0.000000
 41
0.000000
 66
  1
  0
VERTEX
  8
gg1
 10
5.850000
 20
16.765000
  0
VERTEX
  8
gg1
 10
5.890000
 20
16.765000
  0
SEQEND
  8
gg1
  0
POLYLINE
  8
gg1
 62
1
 40
0.000000
 41
0.000000
 66
  1
  0
VERTEX
  8
gg1
 10
5.870000
 20
16.745000
  0
VERTEX
  8
gg1
 10
5.870000
 20
16.785000
  0
SEQEND
  8
gg1
  0
POLYLINE
  8
gg1
 62
1
 40
0.000000
 41
0.000000
 66
  1
  0
VERTEX
  8
gg1
 10
5.850000
 20
16.665000
  0
VERTEX
  8
gg1
 10
5.890000
 20
16.665000
  0
SEQEND
  8
gg1
  0
POLYLINE
  8
gg1
 62
1
 40
0.000000
 41
0.000000
 66
  1
  0
VERTEX
  8
gg1
 10
5.870000
 20
16.645000
  0
VERTEX
  8
gg1
 10
5.870000
 20
16.685000
  0
SEQEND
  8
gg1
  0
ENDSEC
  0
EOF
